  0
SECTION
  2
HEADER
  9
$ACADVER
  1
AC1021
  9
$ACADMAINTVER
 70
    50
  9
$DWGCODEPAGE
  3
ANSI_1250
  9
$INSBASE
 10
0.0
 20
0.0
 30
0.0
  9
$EXTMIN
 10
1.000000000000000E+20
 20
1.000000000000000E+20
 30
1.000000000000000E+20
  9
$EXTMAX
 10
-1.000000000000000E+20
 20
-1.000000000000000E+20
 30
-1.000000000000000E+20
  9
$LIMMIN
 10
0.0
 20
0.0
  9
$LIMMAX
 10
12.0
 20
9.0
  9
$ORTHOMODE
 70
     0
  9
$REGENMODE
 70
     1
  9
$FILLMODE
 70
     1
  9
$QTEXTMODE
 70
     0
  9
$MIRRTEXT
 70
     0
  9
$LTSCALE
 40
1.0
  9
$ATTMODE
 70
     1
  9
$TEXTSIZE
 40
0.2
  9
$TRACEWID
 40
0.05
  9
$TEXTSTYLE
  7
Standard
  9
$CLAYER
  8
0
  9
$CELTYPE
  6
ByLayer
  9
$CECOLOR
 62
   256
  9
$CELTSCALE
 40
1.0
  9
$DISPSILH
 70
     0
  9
$DIMSCALE
 40
1.0
  9
$DIMASZ
 40
0.18
  9
$DIMEXO
 40
0.0625
  9
$DIMDLI
 40
0.38
  9
$DIMRND
 40
0.0
  9
$DIMDLE
 40
0.0
  9
$DIMEXE
 40
0.18
  9
$DIMTP
 40
0.0
  9
$DIMTM
 40
0.0
  9
$DIMTXT
 40
0.18
  9
$DIMCEN
 40
0.09
  9
$DIMTSZ
 40
0.0
  9
$DIMTOL
 70
     0
  9
$DIMLIM
 70
     0
  9
$DIMTIH
 70
     1
  9
$DIMTOH
 70
     1
  9
$DIMSE1
 70
     0
  9
$DIMSE2
 70
     0
  9
$DIMTAD
 70
     0
  9
$DIMZIN
 70
     0
  9
$DIMBLK
  1

  9
$DIMASO
 70
     1
  9
$DIMSHO
 70
     1
  9
$DIMPOST
  1

  9
$DIMAPOST
  1

  9
$DIMALT
 70
     0
  9
$DIMALTD
 70
     2
  9
$DIMALTF
 40
25.4
  9
$DIMLFAC
 40
1.0
  9
$DIMTOFL
 70
     0
  9
$DIMTVP
 40
0.0
  9
$DIMTIX
 70
     0
  9
$DIMSOXD
 70
     0
  9
$DIMSAH
 70
     0
  9
$DIMBLK1
  1

  9
$DIMBLK2
  1

  9
$DIMSTYLE
  2
Standard
  9
$DIMCLRD
 70
     0
  9
$DIMCLRE
 70
     0
  9
$DIMCLRT
 70
     0
  9
$DIMTFAC
 40
1.0
  9
$DIMGAP
 40
0.09
  9
$DIMJUST
 70
     0
  9
$DIMSD1
 70
     0
  9
$DIMSD2
 70
     0
  9
$DIMTOLJ
 70
     1
  9
$DIMTZIN
 70
     0
  9
$DIMALTZ
 70
     0
  9
$DIMALTTZ
 70
     0
  9
$DIMUPT
 70
     0
  9
$DIMDEC
 70
     4
  9
$DIMTDEC
 70
     4
  9
$DIMALTU
 70
     2
  9
$DIMALTTD
 70
     2
  9
$DIMTXSTY
  7
Standard
  9
$DIMAUNIT
 70
     0
  9
$DIMADEC
 70
     0
  9
$DIMALTRND
 40
0.0
  9
$DIMAZIN
 70
     0
  9
$DIMDSEP
 70
    46
  9
$DIMATFIT
 70
     3
  9
$DIMFRAC
 70
     0
  9
$DIMLDRBLK
  1

  9
$DIMLUNIT
 70
     2
  9
$DIMLWD
 70
    -2
  9
$DIMLWE
 70
    -2
  9
$DIMTMOVE
 70
     0
  9
$DIMFXL
 40
1.0
  9
$DIMFXLON
 70
     0
  9
$DIMJOGANG
 40
0.7853981633974483
  9
$DIMTFILL
 70
     0
  9
$DIMTFILLCLR
 70
     0
  9
$DIMARCSYM
 70
     0
  9
$DIMLTYPE
  6

  9
$DIMLTEX1
  6

  9
$DIMLTEX2
  6

  9
$LUNITS
 70
     2
  9
$LUPREC
 70
     4
  9
$SKETCHINC
 40
0.1
  9
$FILLETRAD
 40
0.0
  9
$AUNITS
 70
     0
  9
$AUPREC
 70
     0
  9
$MENU
  1
.
  9
$ELEVATION
 40
0.0
  9
$PELEVATION
 40
0.0
  9
$THICKNESS
 40
0.0
  9
$LIMCHECK
 70
     0
  9
$CHAMFERA
 40
0.0
  9
$CHAMFERB
 40
0.0
  9
$CHAMFERC
 40
0.0
  9
$CHAMFERD
 40
0.0
  9
$SKPOLY
 70
     0
  9
$TDCREATE
 40
2459733.529027778
  9
$TDUCREATE
 40
2459733.445694444
  9
$TDUPDATE
 40
2459733.529027778
  9
$TDUUPDATE
 40
2459733.445694444
  9
$TDINDWG
 40
0.0000000000
  9
$TDUSRTIMER
 40
0.0000000000
  9
$USRTIMER
 70
     1
  9
$ANGBASE
 50
0.0
  9
$ANGDIR
 70
     0
  9
$PDMODE
 70
     0
  9
$PDSIZE
 40
0.0
  9
$PLINEWID
 40
0.0
  9
$SPLFRAME
 70
     0
  9
$SPLINETYPE
 70
     6
  9
$SPLINESEGS
 70
     8
  9
$HANDSEED
  5
DA
  9
$SURFTAB1
 70
     6
  9
$SURFTAB2
 70
     6
  9
$SURFTYPE
 70
     6
  9
$SURFU
 70
     6
  9
$SURFV
 70
     6
  9
$UCSBASE
  2

  9
$UCSNAME
  2

  9
$UCSORG
 10
0.0
 20
0.0
 30
0.0
  9
$UCSXDIR
 10
1.0
 20
0.0
 30
0.0
  9
$UCSYDIR
 10
0.0
 20
1.0
 30
0.0
  9
$UCSORTHOREF
  2

  9
$UCSORTHOVIEW
 70
     0
  9
$UCSORGTOP
 10
0.0
 20
0.0
 30
0.0
  9
$UCSORGBOTTOM
 10
0.0
 20
0.0
 30
0.0
  9
$UCSORGLEFT
 10
0.0
 20
0.0
 30
0.0
  9
$UCSORGRIGHT
 10
0.0
 20
0.0
 30
0.0
  9
$UCSORGFRONT
 10
0.0
 20
0.0
 30
0.0
  9
$UCSORGBACK
 10
0.0
 20
0.0
 30
0.0
  9
$PUCSBASE
  2

  9
$PUCSNAME
  2

  9
$PUCSORG
 10
0.0
 20
0.0
 30
0.0
  9
$PUCSXDIR
 10
1.0
 20
0.0
 30
0.0
  9
$PUCSYDIR
 10
0.0
 20
1.0
 30
0.0
  9
$PUCSORTHOREF
  2

  9
$PUCSORTHOVIEW
 70
     0
  9
$PUCSORGTOP
 10
0.0
 20
0.0
 30
0.0
  9
$PUCSORGBOTTOM
 10
0.0
 20
0.0
 30
0.0
  9
$PUCSORGLEFT
 10
0.0
 20
0.0
 30
0.0
  9
$PUCSORGRIGHT
 10
0.0
 20
0.0
 30
0.0
  9
$PUCSORGFRONT
 10
0.0
 20
0.0
 30
0.0
  9
$PUCSORGBACK
 10
0.0
 20
0.0
 30
0.0
  9
$USERI1
 70
     0
  9
$USERI2
 70
     0
  9
$USERI3
 70
     0
  9
$USERI4
 70
     0
  9
$USERI5
 70
     0
  9
$USERR1
 40
0.0
  9
$USERR2
 40
0.0
  9
$USERR3
 40
0.0
  9
$USERR4
 40
0.0
  9
$USERR5
 40
0.0
  9
$WORLDVIEW
 70
     1
  9
$SHADEDGE
 70
     3
  9
$SHADEDIF
 70
    70
  9
$TILEMODE
 70
     1
  9
$MAXACTVP
 70
    64
  9
$PINSBASE
 10
0.0
 20
0.0
 30
0.0
  9
$PLIMCHECK
 70
     0
  9
$PEXTMIN
 10
1.000000000000000E+20
 20
1.000000000000000E+20
 30
1.000000000000000E+20
  9
$PEXTMAX
 10
-1.000000000000000E+20
 20
-1.000000000000000E+20
 30
-1.000000000000000E+20
  9
$PLIMMIN
 10
0.0
 20
0.0
  9
$PLIMMAX
 10
12.0
 20
9.0
  9
$UNITMODE
 70
     0
  9
$VISRETAIN
 70
     1
  9
$PLINEGEN
 70
     0
  9
$PSLTSCALE
 70
     1
  9
$TREEDEPTH
 70
  3020
  9
$CMLSTYLE
  2
Standard
  9
$CMLJUST
 70
     0
  9
$CMLSCALE
 40
1.0
  9
$PROXYGRAPHICS
 70
     1
  9
$MEASUREMENT
 70
     0
  9
$CELWEIGHT
370
    -1
  9
$ENDCAPS
280
     0
  9
$JOINSTYLE
280
     0
  9
$LWDISPLAY
290
     1
  9
$INSUNITS
 70
     4
  9
$HYPERLINKBASE
  1

  9
$STYLESHEET
  1

  9
$XEDIT
290
     1
  9
$CEPSNTYPE
380
     0
  9
$PSTYLEMODE
290
     1
  9
$FINGERPRINTGUID
  2
{8B4CB1C0-886B-6843-818D-BB14EB4EAA8D}
  9
$VERSIONGUID
  2
{5B73D9D7-B22B-9142-A869-87508407215C}
  9
$EXTNAMES
290
     1
  9
$PSVPSCALE
 40
0.0
  9
$OLESTARTUP
290
     0
  9
$SORTENTS
280
   127
  9
$INDEXCTL
280
     0
  9
$HIDETEXT
280
     1
  9
$XCLIPFRAME
290
     0
  9
$HALOGAP
280
     0
  9
$OBSCOLOR
 70
   257
  9
$OBSLTYPE
280
     0
  9
$INTERSECTIONDISPLAY
280
     0
  9
$INTERSECTIONCOLOR
 70
   257
  9
$DIMASSOC
280
     2
  9
$PROJECTNAME
  1

  9
$CAMERADISPLAY
290
     0
  9
$LENSLENGTH
 40
50.0
  9
$CAMERAHEIGHT
 40
0.0
  9
$STEPSPERSEC
 40
2.0
  9
$STEPSIZE
 40
6.0
  9
$3DDWFPREC
 40
2.0
  9
$PSOLWIDTH
 40
0.25
  9
$PSOLHEIGHT
 40
4.0
  9
$LOFTANG1
 40
1.570796326794896
  9
$LOFTANG2
 40
1.570796326794896
  9
$LOFTMAG1
 40
0.0
  9
$LOFTMAG2
 40
0.0
  9
$LOFTPARAM
 70
     7
  9
$LOFTNORMALS
280
     1
  9
$LATITUDE
 40
37.795
  9
$LONGITUDE
 40
-122.394
  9
$NORTHDIRECTION
 40
0.0
  9
$TIMEZONE
 70
 -8000
  9
$LIGHTGLYPHDISPLAY
280
     1
  9
$TILEMODELIGHTSYNCH
280
     1
  9
$CMATERIAL
347
11
  9
$SOLIDHIST
280
     0
  9
$SHOWHIST
280
     1
  9
$DWFFRAME
280
     2
  9
$DGNFRAME
280
     0
  9
$REALWORLDSCALE
290
     1
  9
$INTERFERECOLOR
 62
     1
  9
$INTERFEREOBJVS
345
33
  9
$INTERFEREVPVS
346
30
  9
$CSHADOW
280
     0
  9
$SHADOWPLANELOCATION
 40
0.0
  0
ENDSEC
  0
SECTION
  2
CLASSES
  0
CLASS
  1
ACDBDICTIONARYWDFLT
  2
AcDbDictionaryWithDefault
  3
ObjectDBX Classes
 90
        0
 91
        1
280
     0
281
     0
  0
CLASS
  1
MATERIAL
  2
AcDbMaterial
  3
ObjectDBX Classes
 90
     1153
 91
        3
280
     0
281
     0
  0
CLASS
  1
VISUALSTYLE
  2
AcDbVisualStyle
  3
ObjectDBX Classes
 90
     4095
 91
       24
280
     0
281
     0
  0
CLASS
  1
SCALE
  2
AcDbScale
  3
ObjectDBX Classes
 90
     1153
 91
       17
280
     0
281
     0
  0
CLASS
  1
TABLESTYLE
  2
AcDbTableStyle
  3
ObjectDBX Classes
 90
     4095
 91
        1
280
     0
281
     0
  0
CLASS
  1
MLEADERSTYLE
  2
AcDbMLeaderStyle
  3
ACDB_MLEADERSTYLE_CLASS
 90
     4095
 91
        1
280
     0
281
     0
  0
CLASS
  1
ACDBSECTIONVIEWSTYLE
  2
AcDbSectionViewStyle
  3
ObjectDBX Classes
 90
     1025
 91
        1
280
     0
281
     0
  0
CLASS
  1
ACDBDETAILVIEWSTYLE
  2
AcDbDetailViewStyle
  3
ObjectDBX Classes
 90
     1025
 91
        1
280
     0
281
     0
  0
CLASS
  1
DICTIONARYVAR
  2
AcDbDictionaryVar
  3
ObjectDBX Classes
 90
        0
 91
        6
280
     0
281
     0
  0
CLASS
  1
CELLSTYLEMAP
  2
AcDbCellStyleMap
  3
ObjectDBX Classes
 90
     1152
 91
        1
280
     0
281
     0
  0
ENDSEC
  0
SECTION
  2
TABLES
  0
TABLE
  2
VPORT
  5
8
330
0
100
AcDbSymbolTable
 70
     1
  0
VPORT
  5
57
330
8
100
AcDbSymbolTableRecord
100
AcDbViewportTableRecord
  2
*Active
 70
     0
 10
0.0
 20
0.0
 11
1.0
 21
1.0
 12
0.0
 22
0.0
 13
0.0
 23
0.0
 14
1.0
 24
1.0
 15
0.0
 25
0.0
 16
0.0
 26
0.0
 36
1.0
 17
192.1979016306074
 27
-81.98696041116136
 37
0.0
 40
261.1466006541447
 41
1.501393157499698
 42
50.0
 43
0.0
 44
0.0
 50
0.0
 51
0.0
 71
     0
 72
   100
 73
     1
 74
     1
 75
     0
 76
     0
 77
     0
 78
     0
281
     0
 65
     1
110
0.0
120
0.0
130
0.0
111
1.0
121
0.0
131
0.0
112
0.0
122
1.0
132
0.0
 79
     0
146
0.0
 60
     3
 61
     5
292
     1
282
     1
141
0.0
142
0.0
 63
   250
421
  3355443
  0
ENDTAB
  0
TABLE
  2
LTYPE
  5
5
330
0
100
AcDbSymbolTable
 70
     1
  0
LTYPE
  5
5B
330
5
100
AcDbSymbolTableRecord
100
AcDbLinetypeTableRecord
  2
ByBlock
 70
     0
  3

 72
    65
 73
     0
 40
0.0
  0
LTYPE
  5
5C
330
5
100
AcDbSymbolTableRecord
100
AcDbLinetypeTableRecord
  2
ByLayer
 70
     0
  3

 72
    65
 73
     0
 40
0.0
  0
LTYPE
  5
5D
330
5
100
AcDbSymbolTableRecord
100
AcDbLinetypeTableRecord
  2
Continuous
 70
     0
  3
Solid line
 72
    65
 73
     0
 40
0.0
  0
ENDTAB
  0
TABLE
  2
LAYER
  5
2
330
0
100
AcDbSymbolTable
 70
     2
  0
LAYER
  5
54
330
2
100
AcDbSymbolTableRecord
100
AcDbLayerTableRecord
  2
0
 70
     0
 62
     7
  6
Continuous
370
    -3
390
F
347
21
  0
LAYER
  5
78
330
2
100
AcDbSymbolTableRecord
100
AcDbLayerTableRecord
  2
Layer 1
 70
     0
 62
     7
  6
Continuous
370
     0
390
F
347
21
  0
ENDTAB
  0
TABLE
  2
STYLE
  5
3
330
0
100
AcDbSymbolTable
 70
     2
  0
STYLE
  5
55
330
3
100
AcDbSymbolTableRecord
100
AcDbTextStyleTableRecord
  2
Standard
 70
     0
 40
0.0
 41
1.0
 50
0.0
 71
     0
 42
0.2
  3
txt
  4

  0
STYLE
  5
5A
330
3
100
AcDbSymbolTableRecord
100
AcDbTextStyleTableRecord
  2
Annotative
 70
     0
 40
0.0
 41
1.0
 50
0.0
 71
     0
 42
0.2
  3
txt
  4

1001
AcadAnnotative
1000
AnnotativeData
1002
{
1070
     1
1070
     1
1002
}
  0
ENDTAB
  0
TABLE
  2
VIEW
  5
6
330
0
100
AcDbSymbolTable
 70
     0
  0
ENDTAB
  0
TABLE
  2
UCS
  5
7
330
0
100
AcDbSymbolTable
 70
     0
  0
ENDTAB
  0
TABLE
  2
APPID
  5
9
330
0
100
AcDbSymbolTable
 70
     3
  0
APPID
  5
56
330
9
100
AcDbSymbolTableRecord
100
AcDbRegAppTableRecord
  2
ACAD
 70
     0
  0
APPID
  5
5E
330
9
100
AcDbSymbolTableRecord
100
AcDbRegAppTableRecord
  2
AcadAnnotative
 70
     0
  0
APPID
  5
D3
330
9
100
AcDbSymbolTableRecord
100
AcDbRegAppTableRecord
  2
ACAD_MLEADERVER
 70
     0
  0
ENDTAB
  0
TABLE
  2
DIMSTYLE
  5
A
330
0
100
AcDbSymbolTable
 70
     2
100
AcDbDimStyleTable
 71
     0
  0
DIMSTYLE
105
58
330
A
100
AcDbSymbolTableRecord
100
AcDbDimStyleTableRecord
  2
Standard
 70
     0
340
55
  0
DIMSTYLE
105
59
330
A
100
AcDbSymbolTableRecord
100
AcDbDimStyleTableRecord
  2
Annotative
 70
     0
340
55
1001
AcadAnnotative
1000
AnnotativeData
1002
{
1070
     1
1070
     1
1002
}
  0
ENDTAB
  0
TABLE
  2
BLOCK_RECORD
  5
1
330
0
100
AcDbSymbolTable
 70
     1
  0
BLOCK_RECORD
  5
70
330
1
100
AcDbSymbolTableRecord
100
AcDbBlockTableRecord
  2
*Model_Space
340
73
 70
     0
280
     1
281
     0
  0
BLOCK_RECORD
  5
6C
330
1
100
AcDbSymbolTableRecord
100
AcDbBlockTableRecord
  2
*Paper_Space
340
6F
 70
     0
280
     1
281
     0
  0
BLOCK_RECORD
  5
74
330
1
100
AcDbSymbolTableRecord
100
AcDbBlockTableRecord
  2
*Paper_Space0
340
77
 70
     0
280
     1
281
     0
  0
ENDTAB
  0
ENDSEC
  0
SECTION
  2
BLOCKS
  0
BLOCK
  5
71
330
70
100
AcDbEntity
  8
0
100
AcDbBlockBegin
  2
*Model_Space
 70
     0
 10
0.0
 20
0.0
 30
0.0
  3
*Model_Space
  1

  0
ENDBLK
  5
72
330
70
100
AcDbEntity
  8
0
100
AcDbBlockEnd
  0
BLOCK
  5
6D
330
6C
100
AcDbEntity
 67
     1
  8
0
100
AcDbBlockBegin
  2
*Paper_Space
 70
     0
 10
0.0
 20
0.0
 30
0.0
  3
*Paper_Space
  1

  0
ENDBLK
  5
6E
330
6C
100
AcDbEntity
 67
     1
  8
0
100
AcDbBlockEnd
  0
BLOCK
  5
75
330
74
100
AcDbEntity
 67
     1
  8
0
100
AcDbBlockBegin
  2
*Paper_Space0
 70
     0
 10
0.0
 20
0.0
 30
0.0
  3
*Paper_Space0
  1

  0
ENDBLK
  5
76
330
74
100
AcDbEntity
 67
     1
  8
0
100
AcDbBlockEnd
  0
ENDSEC
  0
SECTION
  2
ENTITIES
  0
SPLINE
  5
79
330
70
100
AcDbEntity
  8
Layer 1
100
AcDbSpline
210
0.0
220
0.0
230
1.0
 70
     9
 71
     3
 72
    17
 73
    13
 74
     0
 42
0.0000000001
 43
0.0000000001
 40
0.0
 40
0.0
 40
0.0
 40
0.0
 40
1.0
 40
1.0
 40
1.0
 40
2.0
 40
2.0
 40
2.0
 40
3.0
 40
3.0
 40
3.0
 40
4.0
 40
4.0
 40
4.0
 40
4.0
 10
169.176296929969
 20
-42.34958963971737
 30
0.0
 10
167.0051702591488
 20
-43.05014329303641
 30
0.0
 10
168.009695520606
 20
-39.61523258875713
 30
0.0
 10
169.0537623169801
 20
-37.9332038031879
 30
0.0
 10
170.4937805120453
 20
-35.61327609307338
 30
0.0
 10
173.9748230070615
 20
-31.86928554408849
 30
0.0
 10
176.3906089836423
 20
-30.73251371369746
 30
0.0
 10
177.4234502724955
 20
-30.24650599624649
 30
0.0
 10
178.0490831228132
 20
-30.13368333920139
 30
0.0
 10
178.0490831228132
 20
-31.33106029727301
 30
0.0
 10
178.0490831228132
 20
-35.53690480314496
 30
0.0
 10
173.5880790471227
 20
-40.92603131803882
 30
0.0
 10
169.176296929969
 20
-42.34958963971737
 30
0.0
  0
SPLINE
  5
7A
330
70
100
AcDbEntity
  8
Layer 1
100
AcDbSpline
210
0.0
220
0.0
230
1.0
 70
     9
 71
     3
 72
    71
 73
    67
 74
     0
 42
0.0000000001
 43
0.0000000001
 40
0.0
 40
0.0
 40
0.0
 40
0.0
 40
1.0
 40
1.0
 40
1.0
 40
2.0
 40
2.0
 40
2.0
 40
3.0
 40
3.0
 40
3.0
 40
4.0
 40
4.0
 40
4.0
 40
5.0
 40
5.0
 40
5.0
 40
6.0
 40
6.0
 40
6.0
 40
7.0
 40
7.0
 40
7.0
 40
8.0
 40
8.0
 40
8.0
 40
9.0
 40
9.0
 40
9.0
 40
10.0
 40
10.0
 40
10.0
 40
11.0
 40
11.0
 40
11.0
 40
12.0
 40
12.0
 40
12.0
 40
13.0
 40
13.0
 40
13.0
 40
14.0
 40
14.0
 40
14.0
 40
15.0
 40
15.0
 40
15.0
 40
16.0
 40
16.0
 40
16.0
 40
17.0
 40
17.0
 40
17.0
 40
18.0
 40
18.0
 40
18.0
 40
19.0
 40
19.0
 40
19.0
 40
20.0
 40
20.0
 40
20.0
 40
21.0
 40
21.0
 40
21.0
 40
22.0
 40
22.0
 40
22.0
 40
22.0
 10
131.7062465379015
 20
-53.35162757645079
 30
0.0
 10
116.3709419720095
 20
-51.5960969424829
 30
0.0
 10
101.8662303656558
 20
-46.30588732953113
 30
0.0
 10
87.08863802311718
 20
-42.06015443317205
 30
0.0
 10
87.98834983795044
 20
-39.11714799102469
 30
0.0
 10
89.38277229179488
 20
-33.98857307343763
 30
0.0
 10
90.18476543301574
 20
-31.82596013023121
 30
0.0
 10
90.5534413710183
 20
-32.43292584444677
 30
0.0
 10
90.98335308319134
 20
-32.99312912143587
 30
0.0
 10
91.56591277824775
 20
-33.52820113580172
 30
0.0
 10
93.0706983678265
 20
-34.98571977096184
 30
0.0
 10
94.54436155312816
 20
-36.74538113943902
 30
0.0
 10
97.92150503893202
 20
-36.46073884621687
 30
0.0
 10
99.09800759818683
 20
-36.35428571871994
 30
0.0
 10
101.2594853777115
 20
-34.36245184498169
 30
0.0
 10
102.7883616632052
 20
-32.40940273037344
 30
0.0
 10
102.8298897345656
 20
-32.52780660885437
 30
0.0
 10
102.8735620039923
 20
-32.62959295232591
 30
0.0
 10
102.9157837864918
 20
-32.70312633304982
 30
0.0
 10
104.235695357553
 20
-34.95898035978966
 30
0.0
 10
107.4530014904878
 20
-41.10557637371676
 30
0.0
 10
111.5061349488281
 20
-42.0683213052168
 30
0.0
 10
113.1334236190725
 20
-42.45487607120796
 30
0.0
 10
116.9093248804471
 20
-41.23571027691039
 30
0.0
 10
118.0453714673744
 20
-40.84363735413197
 30
0.0
 10
118.3521809847168
 20
-40.74036899140863
 30
0.0
 10
118.6404494952552
 20
-40.58333801542073
 30
0.0
 10
118.9104292575866
 20
-40.38799526517035
 30
0.0
 10
119.1087991109888
 20
-41.884582450381
 30
0.0
 10
120.5318844477995
 20
-43.9563507667153
 30
0.0
 10
121.6182045589977
 20
-44.0231046976721
 30
0.0
 10
124.8941608154944
 20
-44.22447012190092
 30
0.0
 10
131.8600612167909
 20
-43.49903746455519
 30
0.0
 10
134.1430645749212
 20
-42.82355200921084
 30
0.0
 10
134.4065802107309
 20
-42.74557257073314
 30
0.0
 10
134.658964935994
 20
-42.64498445559224
 30
0.0
 10
134.894322206029
 20
-42.52888243679907
 30
0.0
 10
135.4353538297244
 20
-44.66674250527629
 30
0.0
 10
138.0516223254488
 20
-45.84639829698137
 30
0.0
 10
140.1700269497124
 20
-46.04243475837058
 30
0.0
 10
143.6385511119032
 20
-46.36337075708668
 30
0.0
 10
146.6531043983322
 20
-45.03828788480828
 30
0.0
 10
148.3355115717951
 20
-43.66158659733003
 30
0.0
 10
148.9719915417381
 20
-43.14073566131198
 30
0.0
 10
149.492558686836
 20
-42.57249164157689
 30
0.0
 10
149.8533515437143
 20
-42.05441555011412
 30
0.0
 10
149.8533830760389
 20
-42.13286797345934
 30
0.0
 10
149.8527208972247
 20
-42.21113120285722
 30
0.0
 10
149.8538560609068
 20
-42.28989894944692
 30
0.0
 10
149.8839694308002
 20
-44.43851154057717
 30
0.0
 10
152.0024686520361
 20
-46.72734837873988
 30
0.0
 10
153.6910246287771
 20
-46.62906212328674
 30
0.0
 10
155.1806116379487
 20
-46.5423482309239
 30
0.0
 10
156.5181182460783
 20
-46.09657575952949
 30
0.0
 10
157.7668928930775
 20
-45.45230730543538
 30
0.0
 10
157.735265971608
 20
-45.53258860360116
 30
0.0
 10
157.699760574227
 20
-45.61290143409155
 30
0.0
 10
157.6644759031158
 20
-45.69324579690621
 30
0.0
 10
157.4948004650063
 20
-46.00793839537227
 30
0.0
 10
157.322350182339
 20
-46.33016721939315
 30
0.0
 10
157.1293723564259
 20
-46.63804883576811
 30
0.0
 10
156.9427009954115
 20
-46.95822805869649
 30
0.0
 10
156.7300785313391
 20
-47.27487566128122
 30
0.0
 10
156.500491676685
 20
-47.58635196264874
 30
0.0
 10
150.7213733724298
 20
-54.55682455099679
 30
0.0
 10
140.012743715128
 20
-54.39676647185704
 30
0.0
 10
131.7062465379015
 20
-53.35162757645079
 30
0.0
  0
SPLINE
  5
7B
330
70
100
AcDbEntity
  8
Layer 1
100
AcDbSpline
210
0.0
220
0.0
230
1.0
 70
     9
 71
     3
 72
    35
 73
    31
 74
     0
 42
0.0000000001
 43
0.0000000001
 40
0.0
 40
0.0
 40
0.0
 40
0.0
 40
1.0
 40
1.0
 40
1.0
 40
2.0
 40
2.0
 40
2.0
 40
3.0
 40
3.0
 40
3.0
 40
4.0
 40
4.0
 40
4.0
 40
5.0
 40
5.0
 40
5.0
 40
6.0
 40
6.0
 40
6.0
 40
7.0
 40
7.0
 40
7.0
 40
8.0
 40
8.0
 40
8.0
 40
9.0
 40
9.0
 40
9.0
 40
10.0
 40
10.0
 40
10.0
 40
10.0
 10
67.81907686223366
 20
-38.23805831641168
 30
0.0
 10
68.79866005501407
 20
-37.62425008777977
 30
0.0
 10
69.55928278649693
 20
-36.46360828774631
 30
0.0
 10
68.73874863847231
 20
-35.35439570896408
 30
0.0
 10
68.10245786247563
 20
-34.49425696137347
 30
0.0
 10
65.36557822555535
 20
-37.15974741563553
 30
0.0
 10
64.1541063184347
 20
-35.33065186861945
 30
0.0
 10
62.37845806143837
 20
-32.64977364000325
 30
0.0
 10
65.89112747792405
 20
-28.22522093142966
 30
0.0
 10
67.09676590501328
 20
-25.5836319791356
 30
0.0
 10
67.38162892450609
 20
-24.94853943146923
 30
0.0
 10
68.14401746616062
 20
-23.55339173416167
 30
0.0
 10
69.03203078860579
 20
-22.05658382268037
 30
0.0
 10
69.98525295810804
 20
-23.07596080897377
 30
0.0
 10
71.3042500917591
 20
-24.27179268314502
 30
0.0
 10
71.3042500917591
 20
-24.27179268314502
 30
0.0
 10
69.49889838508766
 20
-26.67099265704137
 30
0.0
 10
69.4993398376309
 20
-28.42343312320916
 30
0.0
 10
69.43034711163457
 20
-29.86086566766577
 30
0.0
 10
69.29765909015663
 20
-32.62587213803557
 30
0.0
 10
72.3775473529398
 20
-34.18681679754111
 30
0.0
 10
74.80238310665185
 20
-34.60660663355137
 30
0.0
 10
78.2317125894953
 20
-35.2002657068299
 30
0.0
 10
84.38723225125521
 20
-33.68116444192987
 30
0.0
 10
86.15401992506763
 20
-32.6237279399702
 30
0.0
 10
85.11934976139357
 20
-35.69677368833737
 30
0.0
 10
84.29153164641034
 20
-38.70710164328384
 30
0.0
 10
83.9079409189218
 20
-41.16860949038353
 30
0.0
 10
78.64954742138593
 20
-39.74700617282399
 30
0.0
 10
73.25711001242034
 20
-38.78038276541153
 30
0.0
 10
67.81907686223366
 20
-38.23805831641168
 30
0.0
  0
SPLINE
  5
7C
330
70
100
AcDbEntity
  8
Layer 1
100
AcDbSpline
210
0.0
220
0.0
230
1.0
 70
     9
 71
     3
 72
   101
 73
    97
 74
     0
 42
0.0000000001
 43
0.0000000001
 40
0.0
 40
0.0
 40
0.0
 40
0.0
 40
1.0
 40
1.0
 40
1.0
 40
2.0
 40
2.0
 40
2.0
 40
3.0
 40
3.0
 40
3.0
 40
4.0
 40
4.0
 40
4.0
 40
5.0
 40
5.0
 40
5.0
 40
6.0
 40
6.0
 40
6.0
 40
7.0
 40
7.0
 40
7.0
 40
8.0
 40
8.0
 40
8.0
 40
9.0
 40
9.0
 40
9.0
 40
10.0
 40
10.0
 40
10.0
 40
11.0
 40
11.0
 40
11.0
 40
12.0
 40
12.0
 40
12.0
 40
13.0
 40
13.0
 40
13.0
 40
14.0
 40
14.0
 40
14.0
 40
15.0
 40
15.0
 40
15.0
 40
16.0
 40
16.0
 40
16.0
 40
17.0
 40
17.0
 40
17.0
 40
18.0
 40
18.0
 40
18.0
 40
19.0
 40
19.0
 40
19.0
 40
20.0
 40
20.0
 40
20.0
 40
21.0
 40
21.0
 40
21.0
 40
22.0
 40
22.0
 40
22.0
 40
23.0
 40
23.0
 40
23.0
 40
24.0
 40
24.0
 40
24.0
 40
25.0
 40
25.0
 40
25.0
 40
26.0
 40
26.0
 40
26.0
 40
27.0
 40
27.0
 40
27.0
 40
28.0
 40
28.0
 40
28.0
 40
29.0
 40
29.0
 40
29.0
 40
30.0
 40
30.0
 40
30.0
 40
31.0
 40
31.0
 40
31.0
 40
32.0
 40
32.0
 40
32.0
 40
32.0
 10
55.46773922800937
 20
-37.72070746841234
 30
0.0
 10
57.88951634624497
 20
-35.81010086257491
 30
0.0
 10
58.70254580103936
 20
-32.0386141266298
 30
0.0
 10
59.36724720140672
 20
-29.98743641819082
 30
0.0
 10
60.9587782156729
 20
-25.06419999771916
 30
0.0
 10
62.14026288219887
 20
-22.6921493552133
 30
0.0
 10
62.78629714646465
 20
-20.70059927239556
 30
0.0
 10
63.39165471213128
 20
-18.83448477642145
 30
0.0
 10
60.21972359414533
 20
-12.06440011024288
 30
0.0
 10
58.91437995700071
 20
-16.71674233097267
 30
0.0
 10
57.93567966930645
 20
-20.20491113132504
 30
0.0
 10
57.0214945175298
 20
-23.87599894607625
 30
0.0
 10
55.50876278217793
 20
-27.79732728802449
 30
0.0
 10
54.67372376488564
 20
-27.38384391691381
 30
0.0
 10
52.03140956912751
 20
-28.60468092440986
 30
0.0
 10
52.12830840230267
 20
-28.34980514551206
 30
0.0
 10
53.29557199048085
 20
-24.89966432850135
 30
0.0
 10
54.16945883155205
 20
-23.75917168381997
 30
0.0
 10
56.84037284562721
 20
-18.27510133986993
 30
0.0
 10
57.63788839676998
 20
-16.62961851839121
 30
0.0
 10
55.03732299864418
 20
-13.16506742908633
 30
0.0
 10
53.40202511797778
 20
-12.87676738622274
 30
0.0
 10
49.42620891930123
 20
-12.17583534501001
 30
0.0
 10
46.35644253268085
 20
-13.29554818784938
 30
0.0
 10
44.41991635610849
 20
-14.27065379055109
 30
0.0
 10
43.48860915213064
 20
-14.73960252044942
 30
0.0
 10
42.0201172680465
 20
-15.52564030547572
 30
0.0
 10
40.90718387497393
 20
-16.26529404116924
 30
0.0
 10
41.68023034230831
 20
-14.70359260587535
 30
0.0
 10
42.28063733302871
 20
-13.54266701492105
 30
0.0
 10
42.52832374194205
 20
-13.14826070012993
 30
0.0
 10
42.90135114072488
 20
-12.5541601743088
 30
0.0
 10
42.87826947919413
 20
-11.50258868470484
 30
0.0
 10
42.64906101243536
 20
-10.49573003123582
 30
0.0
 10
43.77757137380878
 20
-11.29538978044428
 30
0.0
 10
45.04917542374248
 20
-11.79710059549356
 30
0.0
 10
46.43130027103352
 20
-11.63064145448137
 30
0.0
 10
48.05745377759645
 20
-11.43482571936345
 30
0.0
 10
51.83442713800389
 20
-9.049783759165682
 30
0.0
 10
52.96946469054723
 20
-8.350239140230922
 30
0.0
 10
53.01275857207991
 20
-8.32397271392594
 30
0.0
 10
53.05311994743426
 20
-8.290548449960144
 30
0.0
 10
53.0957201178278
 20
-8.262484681159529
 30
0.0
 10
53.22355216133302
 20
-9.52380919330772
 30
0.0
 10
54.11449798995588
 20
-10.81423804096572
 30
0.0
 10
55.1016804729397
 20
-10.67357234139099
 30
0.0
 10
56.56604162251519
 20
-10.46492295020324
 30
0.0
 10
59.15468780198162
 20
-10.05251167812573
 30
0.0
 10
61.77319509274525
 20
-9.593022645575331
 30
0.0
 10
61.72923903239836
 20
-9.877223486254562
 30
0.0
 10
61.71599545611054
 20
-10.17687516593619
 30
0.0
 10
61.74405922491115
 20
-10.48901364611825
 30
0.0
 10
61.94198762577014
 20
-12.69053747775184
 30
0.0
 10
63.23285792597139
 20
-13.67658479705392
 30
0.0
 10
65.33262694645772
 20
-13.70928381755596
 30
0.0
 10
66.78289314698385
 20
-13.73186096189489
 30
0.0
 10
67.0930450907223
 20
-11.63464605969222
 30
0.0
 10
66.69479183234304
 20
-10.35128045272185
 30
0.0
 10
66.50446272168778
 20
-9.737976741282082
 30
0.0
 10
66.34405778697864
 20
-9.210756275715544
 30
0.0
 10
66.16066578771192
 20
-8.773276805663684
 30
0.0
 10
67.65223933332745
 20
-8.471701654187661
 30
0.0
 10
68.88638298176086
 20
-8.1886675095151
 30
0.0
 10
69.5535754357633
 20
-7.968193496642112
 30
0.0
 10
69.88387653485448
 20
-7.859060121562428
 30
0.0
 10
70.19383928464655
 20
-7.713979896558206
 30
0.0
 10
70.47722028488853
 20
-7.550642455671359
 30
0.0
 10
71.30087613303786
 20
-8.894203270104323
 30
0.0
 10
72.45634663185476
 20
-9.867511530310077
 30
0.0
 10
73.20514474165141
 20
-9.973302478992474
 30
0.0
 10
74.40258476437223
 20
-10.14244186758709
 30
0.0
 10
76.15247111225507
 20
-9.268807285111806
 30
0.0
 10
78.14846725282658
 20
-7.670149965509743
 30
0.0
 10
77.5949172963068
 20
-8.743825614585102
 30
0.0
 10
76.98117213232412
 20
-9.77833811663643
 30
0.0
 10
76.27494266059639
 20
-10.80253954857827
 30
0.0
 10
74.18753431131204
 20
-13.84830983625683
 30
0.0
 10
71.27145647428356
 20
-12.89524532837762
 30
0.0
 10
69.61298233511325
 20
-10.88701464590127
 30
0.0
 10
68.93796986463545
 20
-10.06994905357141
 30
0.0
 10
68.20061798863034
 20
-9.988847914969024
 30
0.0
 10
68.01684760146994
 20
-10.52146040802406
 30
0.0
 10
67.71104711851176
 20
-11.35072900993383
 30
0.0
 10
67.96677427017077
 20
-11.88914345069632
 30
0.0
 10
68.90675286338455
 20
-12.97596807908632
 30
0.0
 10
68.85598582094722
 20
-13.04874468402187
 30
0.0
 10
68.80518724618432
 20
-13.12202580614988
 30
0.0
 10
68.75492472093879
 20
-13.2060909832549
 30
0.0
 10
65.78637709594925
 20
-18.17000410232603
 30
0.0
 10
60.96707121701545
 20
-28.58008571130368
 30
0.0
 10
60.01249315756016
 20
-34.67487411608393
 30
0.0
 10
59.92902709462015
 20
-35.20764427076202
 30
0.0
 10
59.69726450957737
 20
-36.87778536999581
 30
0.0
 10
60.06029616149552
 20
-37.74861357559088
 30
0.0
 10
58.52883422539317
 20
-37.70730623050148
 30
0.0
 10
56.99746688626433
 20
-37.69831951802011
 30
0.0
 10
55.46773922800937
 20
-37.72070746841234
 30
0.0
  0
SPLINE
  5
7D
330
70
100
AcDbEntity
  8
Layer 1
100
AcDbSpline
210
0.0
220
0.0
230
1.0
 70
     9
 71
     3
 72
    23
 73
    19
 74
     0
 42
0.0000000001
 43
0.0000000001
 40
0.0
 40
0.0
 40
0.0
 40
0.0
 40
1.0
 40
1.0
 40
1.0
 40
2.0
 40
2.0
 40
2.0
 40
3.0
 40
3.0
 40
3.0
 40
4.0
 40
4.0
 40
4.0
 40
5.0
 40
5.0
 40
5.0
 40
6.0
 40
6.0
 40
6.0
 40
6.0
 10
16.93180167101623
 20
-44.27558401990863
 30
0.0
 10
15.7312399481707
 20
-44.35832483938521
 30
0.0
 10
15.15653180191393
 20
-44.14809883197313
 30
0.0
 10
14.77082840868368
 20
-43.55339919198605
 30
0.0
 10
13.8853692045225
 20
-42.09647967099156
 30
0.0
 10
15.03421791519533
 20
-39.81830075850839
 30
0.0
 10
16.84861939899705
 20
-39.57398830831662
 30
0.0
 10
19.38444893493268
 20
-39.11818855773292
 30
0.0
 10
22.0877151139408
 20
-40.71050788011143
 30
0.0
 10
24.22339945202771
 20
-42.1148630161723
 30
0.0
 10
24.37762405113571
 20
-42.21296007767779
 30
0.0
 10
24.53711454843442
 20
-42.30241728227194
 30
0.0
 10
24.69275810214436
 20
-42.39824401641427
 30
0.0
 10
23.31842173900406
 20
-42.78747902998754
 30
0.0
 10
21.95490096316505
 20
-43.17967808206407
 30
0.0
 10
20.60910135369322
 20
-43.54472780274948
 30
0.0
 10
19.34386683330671
 20
-43.87695237363503
 30
0.0
 10
18.07201052477678
 20
-44.18076632015025
 30
0.0
 10
16.93180167101623
 20
-44.27558401990863
 30
0.0
  0
SPLINE
  5
7E
330
70
100
AcDbEntity
  8
Layer 1
100
AcDbSpline
210
0.0
220
0.0
230
1.0
 70
     9
 71
     3
 72
    17
 73
    13
 74
     0
 42
0.0000000001
 43
0.0000000001
 40
0.0
 40
0.0
 40
0.0
 40
0.0
 40
1.0
 40
1.0
 40
1.0
 40
2.0
 40
2.0
 40
2.0
 40
3.0
 40
3.0
 40
3.0
 40
4.0
 40
4.0
 40
4.0
 40
4.0
 10
48.61261188266581
 20
-24.90909249352533
 30
0.0
 10
48.55134457617102
 20
-25.03597856729582
 30
0.0
 10
48.49007726967591
 20
-25.16346375523131
 30
0.0
 10
48.45892333307423
 20
-25.28826869558502
 30
0.0
 10
45.94169786859032
 20
-26.73014729779541
 30
0.0
 10
41.87412260563152
 20
-29.1709699400266
 30
0.0
 10
41.70476249076592
 20
-28.07509553450602
 30
0.0
 10
41.50781159196626
 20
-26.8008743016391
 30
0.0
 10
43.56356148745681
 20
-24.88869107957669
 30
0.0
 10
44.95930829893032
 20
-24.10918048572128
 30
0.0
 10
45.96843727976251
 20
-23.54557171768696
 30
0.0
 10
47.5377695375841
 20
-24.37096184368334
 30
0.0
 10
48.61261188266581
 20
-24.90909249352533
 30
0.0
  0
SPLINE
  5
7F
330
70
100
AcDbEntity
  8
Layer 1
100
AcDbSpline
210
0.0
220
0.0
230
1.0
 70
     9
 71
     3
 72
    74
 73
    70
 74
     0
 42
0.0000000001
 43
0.0000000001
 40
0.0
 40
0.0
 40
0.0
 40
0.0
 40
1.0
 40
1.0
 40
1.0
 40
2.0
 40
2.0
 40
2.0
 40
3.0
 40
3.0
 40
3.0
 40
4.0
 40
4.0
 40
4.0
 40
5.0
 40
5.0
 40
5.0
 40
6.0
 40
6.0
 40
6.0
 40
7.0
 40
7.0
 40
7.0
 40
8.0
 40
8.0
 40
8.0
 40
9.0
 40
9.0
 40
9.0
 40
10.0
 40
10.0
 40
10.0
 40
11.0
 40
11.0
 40
11.0
 40
12.0
 40
12.0
 40
12.0
 40
13.0
 40
13.0
 40
13.0
 40
14.0
 40
14.0
 40
14.0
 40
15.0
 40
15.0
 40
15.0
 40
16.0
 40
16.0
 40
16.0
 40
17.0
 40
17.0
 40
17.0
 40
18.0
 40
18.0
 40
18.0
 40
19.0
 40
19.0
 40
19.0
 40
20.0
 40
20.0
 40
20.0
 40
21.0
 40
21.0
 40
21.0
 40
22.0
 40
22.0
 40
22.0
 40
23.0
 40
23.0
 40
23.0
 40
23.0
 10
22.71407320772105
 20
-37.95026279073989
 30
0.0
 10
22.72958711137331
 20
-34.69849182713141
 30
0.0
 10
26.45402761917079
 20
-25.10084055878316
 30
0.0
 10
28.23396427229848
 20
-21.73145402480608
 30
0.0
 10
28.20385090240505
 20
-25.24138012906011
 30
0.0
 10
27.65455780969172
 20
-32.77328575505249
 30
0.0
 10
29.61612065191413
 20
-34.04634029191337
 30
0.0
 10
31.45060822641904
 20
-35.23693780021819
 30
0.0
 10
33.41904511538144
 20
-34.62016553308431
 30
0.0
 10
33.88323246428087
 20
-32.05018648971946
 30
0.0
 10
34.1380451785301
 20
-30.63955642108457
 30
0.0
 10
37.22717241239055
 20
-23.87659806024125
 30
0.0
 10
39.66799505462111
 20
-18.8064525399448
 30
0.0
 10
40.47859652042993
 20
-18.59020385855428
 30
0.0
 10
42.28653387770935
 20
-17.94710210046685
 30
0.0
 10
46.09459811006924
 20
-16.64018184709756
 30
0.0
 10
49.10552517918072
 20
-15.60686757337687
 30
0.0
 10
53.49337426204173
 20
-16.0634556320729
 30
0.0
 10
52.57225199887621
 20
-17.80798148479183
 30
0.0
 10
51.9896923038198
 20
-18.92895562061041
 30
0.0
 10
51.34485626788499
 20
-20.02728954744085
 30
0.0
 10
50.69995716730127
 20
-21.07100948824549
 30
0.0
 10
49.87125614723222
 20
-20.58862798811233
 30
0.0
 10
48.95010235174241
 20
-20.15363957169492
 30
0.0
 10
48.06013402517791
 20
-19.73110642345397
 30
0.0
 10
45.60420739951405
 20
-18.56948712136053
 30
0.0
 10
41.91886697409073
 20
-20.69000441136524
 30
0.0
 10
40.38488245202901
 20
-23.86887264074005
 30
0.0
 10
39.12595439654209
 20
-26.47769950788381
 30
0.0
 10
38.94344530236122
 20
-27.41509245048867
 30
0.0
 10
38.8811689614828
 20
-29.20616001416343
 30
0.0
 10
38.81996471963659
 20
-30.96686194934851
 30
0.0
 10
40.66110561461017
 20
-32.49498145905422
 30
0.0
 10
42.19590997710883
 20
-32.26807485198385
 30
0.0
 10
44.28432736077714
 20
-31.95931033052337
 30
0.0
 10
46.43284535493388
 20
-30.84568322631229
 30
0.0
 10
48.12140133167303
 20
-29.79600367617779
 30
0.0
 10
48.70506465808688
 20
-31.1325643145733
 30
0.0
 10
52.90513874857662
 20
-31.999104124037
 30
0.0
 10
54.19496848206899
 20
-30.83956595536003
 30
0.0
 10
54.22028893863892
 20
-30.80935798849341
 30
0.0
 10
54.24046962631593
 20
-30.78312309451239
 30
0.0
 10
54.26506483942276
 20
-30.7534827094868
 30
0.0
 10
54.05619472196372
 20
-31.210543753051
 30
0.0
 10
53.84120733355242
 20
-31.66974899467992
 30
0.0
 10
53.61187273749617
 20
-32.13374714963299
 30
0.0
 10
51.83666593304277
 20
-35.71096323436055
 30
0.0
 10
49.47625071827546
 20
-36.19911514987721
 30
0.0
 10
47.67509281076251
 20
-34.67455879283945
 30
0.0
 10
46.64099022892918
 20
-33.79565831217345
 30
0.0
 10
45.43601398065447
 20
-35.48052500694718
 30
0.0
 10
46.92411897057556
 20
-36.60881464204865
 30
0.0
 10
47.37755379682228
 20
-36.95220165580556
 30
0.0
 10
48.21978218409935
 20
-37.49935055045288
 30
0.0
 10
49.18829753098192
 20
-37.97041194609262
 30
0.0
 10
42.17036879426792
 20
-38.43412631012486
 30
0.0
 10
35.18239576582435
 20
-39.58297502079768
 30
0.0
 10
28.38787354816136
 20
-41.3879483395751
 30
0.0
 10
28.29564149901191
 20
-41.41172371224499
 30
0.0
 10
28.20404009635206
 20
-41.43770634762914
 30
0.0
 10
28.1118711118515
 20
-41.46173397889461
 30
0.0
 10
27.28559808076865
 20
-40.97490642100734
 30
0.0
 10
26.47020370163727
 20
-40.47086221394505
 30
0.0
 10
25.67874235679722
 20
-39.92774945683288
 30
0.0
 10
24.73286721890279
 20
-39.25166488732255
 30
0.0
 10
23.74256303579427
 20
-38.59418438926491
 30
0.0
 10
22.70341528204152
 20
-38.04508049049859
 30
0.0
 10
22.70537028616051
 20
-38.01130937096371
 30
0.0
 10
22.71391554609865
 20
-37.9863673022878
 30
0.0
 10
22.71407320772105
 20
-37.95026279073989
 30
0.0
  0
SPLINE
  5
80
330
70
100
AcDbEntity
  8
Layer 1
100
AcDbSpline
210
0.0
220
0.0
230
1.0
 70
     9
 71
     3
 72
    23
 73
    19
 74
     0
 42
0.0000000001
 43
0.0000000001
 40
0.0
 40
0.0
 40
0.0
 40
0.0
 40
1.0
 40
1.0
 40
1.0
 40
2.0
 40
2.0
 40
2.0
 40
3.0
 40
3.0
 40
3.0
 40
4.0
 40
4.0
 40
4.0
 40
5.0
 40
5.0
 40
5.0
 40
6.0
 40
6.0
 40
6.0
 40
6.0
 10
64.4576995386783
 20
-1.918370186591744
 30
0.0
 10
66.47929992673994
 20
-0.5487006074761989
 30
0.0
 10
70.31580631579512
 20
1.413209090315627
 30
0.0
 10
71.45897920805859
 20
1.950267641124444
 30
0.0
 10
71.40657248474738
 20
1.868504323707515
 30
0.0
 10
71.35432342305794
 20
1.787024797211102
 30
0.0
 10
71.30160137650097
 20
1.704883091899512
 30
0.0
 10
70.38047911333577
 20
0.2282243357709321
 30
0.0
 10
69.75954457936862
 20
-1.82364708380687
 30
0.0
 10
69.52059262434075
 20
-3.845531262789347
 30
0.0
 10
69.47058235769081
 20
-4.268695057520224
 30
0.0
 10
69.48975401098387
 20
-4.692647160363428
 30
0.0
 10
69.55303938624656
 20
-5.110450459930087
 30
0.0
 10
66.73054948832121
 20
-5.16131209934157
 30
0.0
 10
62.2564910302895
 20
-5.899609945081412
 30
0.0
 10
59.54568862572751
 20
-6.027284326964235
 30
0.0
 10
60.8043328902936
 20
-4.460884575320977
 30
0.0
 10
62.52432659455525
 20
-3.228254478463329
 30
0.0
 10
64.4576995386783
 20
-1.918370186591744
 30
0.0
  0
SPLINE
  5
81
330
70
100
AcDbEntity
  8
Layer 1
100
AcDbSpline
210
0.0
220
0.0
230
1.0
 70
     9
 71
     3
 72
    17
 73
    13
 74
     0
 42
0.0000000001
 43
0.0000000001
 40
0.0
 40
0.0
 40
0.0
 40
0.0
 40
1.0
 40
1.0
 40
1.0
 40
2.0
 40
2.0
 40
2.0
 40
3.0
 40
3.0
 40
3.0
 40
4.0
 40
4.0
 40
4.0
 40
4.0
 10
76.52212455231728
 20
-23.67576868552886
 30
0.0
 10
77.22822789474753
 20
-23.28252906674441
 30
0.0
 10
77.93981786163948
 20
-22.95698934865213
 30
0.0
 10
78.60937523997892
 20
-22.71548327533994
 30
0.0
 10
79.37393951202373
 20
-22.43973309762599
 30
0.0
 10
83.57480191062581
 20
-21.45778498050859
 30
0.0
 10
83.33758423344532
 20
-22.65926114076457
 30
0.0
 10
83.11770933473765
 20
-23.77317203589583
 30
0.0
 10
81.77080609390804
 20
-24.75458410349713
 30
0.0
 10
80.66663868704555
 20
-24.96263438051891
 30
0.0
 10
79.40853047199556
 20
-25.1996628637524
 30
0.0
 10
77.93439430182572
 20
-24.57784542469942
 30
0.0
 10
76.52212455231728
 20
-23.67576868552886
 30
0.0
  0
SPLINE
  5
82
330
70
100
AcDbEntity
  8
Layer 1
100
AcDbSpline
210
0.0
220
0.0
230
1.0
 70
     9
 71
     3
 72
    20
 73
    16
 74
     0
 42
0.0000000001
 43
0.0000000001
 40
0.0
 40
0.0
 40
0.0
 40
0.0
 40
1.0
 40
1.0
 40
1.0
 40
2.0
 40
2.0
 40
2.0
 40
3.0
 40
3.0
 40
3.0
 40
4.0
 40
4.0
 40
4.0
 40
5.0
 40
5.0
 40
5.0
 40
5.0
 10
100.5924190530071
 20
-27.65669312077404
 30
0.0
 10
99.64011132091538
 20
-29.48064889889721
 30
0.0
 10
97.94386145699901
 20
-30.83660191685773
 30
0.0
 10
96.38657454713492
 20
-31.48358215085791
 30
0.0
 10
94.32376141095737
 20
-32.34050460135031
 30
0.0
 10
93.59306285542094
 20
-31.51571358951925
 30
0.0
 10
91.53583094067892
 20
-29.00845233957573
 30
0.0
 10
91.90450687868116
 20
-28.38852683999221
 30
0.0
 10
92.29815641768455
 20
-27.42969191673049
 30
0.0
 10
92.70202242982426
 20
-27.0721784215996
 30
0.0
 10
93.06231076951043
 20
-26.75326049165076
 30
0.0
 10
93.96066669439035
 20
-26.60266210985959
 30
0.0
 10
94.97424173297693
 20
-26.53893528205399
 30
0.0
 10
97.24642950380564
 20
-26.43904087805191
 30
0.0
 10
101.1760508470957
 20
-26.50954715562431
 30
0.0
 10
100.5924190530071
 20
-27.65669312077404
 30
0.0
  0
SPLINE
  5
83
330
70
100
AcDbEntity
  8
Layer 1
100
AcDbSpline
210
0.0
220
0.0
230
1.0
 70
     9
 71
     3
 72
   254
 73
   250
 74
     0
 42
0.0000000001
 43
0.0000000001
 40
0.0
 40
0.0
 40
0.0
 40
0.0
 40
1.0
 40
1.0
 40
1.0
 40
2.0
 40
2.0
 40
2.0
 40
3.0
 40
3.0
 40
3.0
 40
4.0
 40
4.0
 40
4.0
 40
5.0
 40
5.0
 40
5.0
 40
6.0
 40
6.0
 40
6.0
 40
7.0
 40
7.0
 40
7.0
 40
8.0
 40
8.0
 40
8.0
 40
9.0
 40
9.0
 40
9.0
 40
10.0
 40
10.0
 40
10.0
 40
11.0
 40
11.0
 40
11.0
 40
12.0
 40
12.0
 40
12.0
 40
13.0
 40
13.0
 40
13.0
 40
14.0
 40
14.0
 40
14.0
 40
15.0
 40
15.0
 40
15.0
 40
16.0
 40
16.0
 40
16.0
 40
17.0
 40
17.0
 40
17.0
 40
18.0
 40
18.0
 40
18.0
 40
19.0
 40
19.0
 40
19.0
 40
20.0
 40
20.0
 40
20.0
 40
21.0
 40
21.0
 40
21.0
 40
22.0
 40
22.0
 40
22.0
 40
23.0
 40
23.0
 40
23.0
 40
24.0
 40
24.0
 40
24.0
 40
25.0
 40
25.0
 40
25.0
 40
26.0
 40
26.0
 40
26.0
 40
27.0
 40
27.0
 40
27.0
 40
28.0
 40
28.0
 40
28.0
 40
29.0
 40
29.0
 40
29.0
 40
30.0
 40
30.0
 40
30.0
 40
31.0
 40
31.0
 40
31.0
 40
32.0
 40
32.0
 40
32.0
 40
33.0
 40
33.0
 40
33.0
 40
34.0
 40
34.0
 40
34.0
 40
35.0
 40
35.0
 40
35.0
 40
36.0
 40
36.0
 40
36.0
 40
37.0
 40
37.0
 40
37.0
 40
38.0
 40
38.0
 40
38.0
 40
39.0
 40
39.0
 40
39.0
 40
40.0
 40
40.0
 40
40.0
 40
41.0
 40
41.0
 40
41.0
 40
42.0
 40
42.0
 40
42.0
 40
43.0
 40
43.0
 40
43.0
 40
44.0
 40
44.0
 40
44.0
 40
45.0
 40
45.0
 40
45.0
 40
46.0
 40
46.0
 40
46.0
 40
47.0
 40
47.0
 40
47.0
 40
48.0
 40
48.0
 40
48.0
 40
49.0
 40
49.0
 40
49.0
 40
50.0
 40
50.0
 40
50.0
 40
51.0
 40
51.0
 40
51.0
 40
52.0
 40
52.0
 40
52.0
 40
53.0
 40
53.0
 40
53.0
 40
54.0
 40
54.0
 40
54.0
 40
55.0
 40
55.0
 40
55.0
 40
56.0
 40
56.0
 40
56.0
 40
57.0
 40
57.0
 40
57.0
 40
58.0
 40
58.0
 40
58.0
 40
59.0
 40
59.0
 40
59.0
 40
60.0
 40
60.0
 40
60.0
 40
61.0
 40
61.0
 40
61.0
 40
62.0
 40
62.0
 40
62.0
 40
63.0
 40
63.0
 40
63.0
 40
64.0
 40
64.0
 40
64.0
 40
65.0
 40
65.0
 40
65.0
 40
66.0
 40
66.0
 40
66.0
 40
67.0
 40
67.0
 40
67.0
 40
68.0
 40
68.0
 40
68.0
 40
69.0
 40
69.0
 40
69.0
 40
70.0
 40
70.0
 40
70.0
 40
71.0
 40
71.0
 40
71.0
 40
72.0
 40
72.0
 40
72.0
 40
73.0
 40
73.0
 40
73.0
 40
74.0
 40
74.0
 40
74.0
 40
75.0
 40
75.0
 40
75.0
 40
76.0
 40
76.0
 40
76.0
 40
77.0
 40
77.0
 40
77.0
 40
78.0
 40
78.0
 40
78.0
 40
79.0
 40
79.0
 40
79.0
 40
80.0
 40
80.0
 40
80.0
 40
81.0
 40
81.0
 40
81.0
 40
82.0
 40
82.0
 40
82.0
 40
83.0
 40
83.0
 40
83.0
 40
83.0
 10
82.04696619184062
 20
-10.08044931762855
 30
0.0
 10
82.59657460779875
 20
-8.866801680117601
 30
0.0
 10
83.10755592624992
 20
-7.784580771104105
 30
0.0
 10
83.57874345118778
 20
-6.809664362348767
 30
0.0
 10
84.82676132239861
 20
-9.006206086712484
 30
0.0
 10
84.99706740699958
 20
-12.20528653608924
 30
0.0
 10
88.96884746814098
 20
-13.06451084626972
 30
0.0
 10
90.59613613838566
 20
-13.41653771693892
 30
0.0
 10
94.37203739975993
 20
-12.17580381268605
 30
0.0
 10
95.50814705133644
 20
-11.79095179221701
 30
0.0
 10
97.87171549855306
 20
-11.01043216397765
 30
0.0
 10
99.19169013426314
 20
-7.174556421412404
 30
0.0
 10
98.700479583271
 20
-5.525510447265743
 30
0.0
 10
97.84169672563344
 20
-2.625230304809076
 30
0.0
 10
94.21841191481759
 20
-2.125789817123602
 30
0.0
 10
91.24112983594288
 20
-0.7908688596026013
 30
0.0
 10
91.24112983594288
 20
-0.2077731150300972
 30
0.0
 10
94.4907881338106
 20
0.456707559065957
 30
0.0
 10
95.20080148447789
 20
0.3136138705050194
 30
0.0
 10
96.72333977274774
 20
0.0067412885139975
 30
0.0
 10
101.1995108965208
 20
-1.578167937608753
 30
0.0
 10
102.8564084194665
 20
-3.349464733824483
 30
0.0
 10
101.5365914453788
 20
-5.590719294322497
 30
0.0
 10
99.96514652181616
 20
-8.147801616968939
 30
0.0
 10
99.31734644737872
 20
-10.47990080433908
 30
0.0
 10
98.67749251871378
 20
-12.78352630268966
 30
0.0
 10
101.8070757249017
 20
-16.06487458667547
 30
0.0
 10
103.8606814223269
 20
-15.92506025986132
 30
0.0
 10
105.7923516209275
 20
-15.79353893439068
 30
0.0
 10
109.9388838244234
 20
-13.39058661387874
 30
0.0
 10
110.5537010874382
 20
-11.90153565422324
 30
0.0
 10
111.0749934759998
 20
-10.6370579096251
 30
0.0
 10
109.0489154978595
 20
-11.25471308184513
 30
0.0
 10
108.4652837037702
 20
-11.39790136737925
 30
0.0
 10
106.9916835831175
 20
-11.79874027636743
 30
0.0
 10
104.2594391978983
 20
-11.53494084963747
 30
0.0
 10
103.7994141158321
 20
-11.42823546354399
 30
0.0
 10
103.6457255662405
 20
-10.53325349738534
 30
0.0
 10
104.8129891544187
 20
-8.317287861132653
 30
0.0
 10
105.4880016248959
 20
-7.337074021862635
 30
0.0
 10
105.8867594004669
 20
-6.784312373454548
 30
0.0
 10
106.8390671325587
 20
-5.438670425604471
 30
0.0
 10
107.912805846283
 20
-3.965007240302802
 30
0.0
 10
109.1714501108494
 20
-3.945961716307849
 30
0.0
 10
113.0794718118606
 20
-4.871466972578248
 30
0.0
 10
113.955786641918
 20
-5.024178020110167
 30
0.0
 10
114.2394199007559
 20
-5.073589172594786
 30
0.0
 10
114.5202783150381
 20
-5.104143995031463
 30
0.0
 10
114.7909202561838
 20
-5.117198377372272
 30
0.0
 10
113.0405924557574
 20
-8.029996852653326
 30
0.0
 10
111.542460186647
 20
-11.08689805087926
 30
0.0
 10
110.8058650864296
 20
-14.02328270488319
 30
0.0
 10
110.1297805169196
 20
-16.69725535443416
 30
0.0
 10
113.3555057804951
 20
-20.50636015350294
 30
0.0
 10
114.029288490317
 20
-17.79757581770853
 30
0.0
 10
114.3987212041069
 20
-16.31249793093928
 30
0.0
 10
114.826835573784
 20
-15.05170946830687
 30
0.0
 10
115.2879327548834
 20
-13.89050008643238
 30
0.0
 10
115.9016779188657
 20
-14.81824413774165
 30
0.0
 10
116.700265569041
 20
-15.72136144362013
 30
0.0
 10
117.2527434265283
 20
-16.2647579916525
 30
0.0
 10
119.0395541263963
 20
-18.0251130712685
 30
0.0
 10
125.6889015220812
 20
-21.09923091866915
 30
0.0
 10
128.1368504696483
 20
-21.58725670488769
 30
0.0
 10
128.1721982054078
 20
-21.59769390429561
 30
0.0
 10
128.207199085598
 20
-21.60630222888296
 30
0.0
 10
128.2416639162717
 20
-21.61065368966323
 30
0.0
 10
128.2419477071922
 20
-21.61071675431245
 30
0.0
 10
128.2422945627616
 20
-21.61081135128563
 30
0.0
 10
128.2425783536821
 20
-21.61087441593485
 30
0.0
 10
128.2433351294699
 20
-21.61100054523297
 30
0.0
 10
128.2435873880661
 20
-21.61068522198784
 30
0.0
 10
128.2443441638538
 20
-21.61081135128563
 30
0.0
 10
128.5711136426019
 20
-21.65066820944849
 30
0.0
 10
128.8543054488969
 20
-21.41307214437397
 30
0.0
 10
129.012408523918
 20
-20.77542547842361
 30
0.0
 10
129.6188381886168
 20
-18.32965226124715
 30
0.0
 10
130.9313396634219
 20
-15.2947606255191
 30
0.0
 10
132.2990542384188
 20
-13.04177604030839
 30
0.0
 10
132.8351983518175
 20
-13.52548189807063
 30
0.0
 10
133.3930051721447
 20
-14.02602601711419
 30
0.0
 10
133.3706487540771
 20
-14.07367135942682
 30
0.0
 10
132.6068412578203
 20
-15.70263124286998
 30
0.0
 10
132.1363159116966
 20
-17.52166797837185
 30
0.0
 10
132.0427910372427
 20
-19.47115394031215
 30
0.0
 10
131.9100399511165
 20
-22.23839920572178
 30
0.0
 10
134.9899912785486
 20
-23.72454919152387
 30
0.0
 10
137.4158360666439
 20
-23.9312751109169
 30
0.0
 10
140.8843286965114
 20
-24.22685912073878
 30
0.0
 10
147.0300418053524
 20
-21.83604674515784
 30
0.0
 10
148.8906066122159
 20
-20.70302726138176
 30
0.0
 10
148.8920886314661
 20
-20.70211282397163
 30
0.0
 10
148.893318392122
 20
-20.70104072493879
 30
0.0
 10
148.8948004113734
 20
-20.70012628752835
 30
0.0
 10
149.4093133501682
 20
-22.5085681619999
 30
0.0
 10
151.1452624106241
 20
-24.14105966578639
 30
0.0
 10
152.5774921215392
 20
-24.0582557816609
 30
0.0
 10
154.0822777111183
 20
-23.97128963070151
 30
0.0
 10
155.4333432187808
 20
-23.52037739041451
 30
0.0
 10
156.6918928863741
 20
-22.86923488958074
 30
0.0
 10
156.4769370302871
 20
-23.25998345473009
 30
0.0
 10
156.2620442388493
 20
-23.68015167863373
 30
0.0
 10
156.0159029138372
 20
-24.07222460141215
 30
0.0
 10
153.9285576292018
 20
-27.64739108504786
 30
0.0
 10
151.0125428568225
 20
-27.25011532872795
 30
0.0
 10
149.3540687176516
 20
-25.48026901943876
 30
0.0
 10
148.6790562471741
 20
-24.76025992190615
 30
0.0
 10
147.9417359034936
 20
-24.76893131114272
 30
0.0
 10
147.7579339840089
 20
-25.32311191415243
 30
0.0
 10
147.4338132205189
 20
-26.24016650745819
 30
0.0
 10
147.2566330891776
 20
-27.02068613569788
 30
0.0
 10
148.303254003836
 20
-28.11933538577343
 30
0.0
 10
148.197589184451
 20
-28.10331696493
 30
0.0
 10
148.0944784833504
 20
-28.09146081091918
 30
0.0
 10
147.9980211027185
 20
-28.08909588658252
 30
0.0
 10
145.1433051691583
 20
-28.01881033528142
 30
0.0
 10
142.0121138144211
 20
-29.52271301977497
 30
0.0
 10
139.6788479310443
 20
-31.50562324568074
 30
0.0
 10
137.2424082819182
 20
-33.57616180135948
 30
0.0
 10
135.4905038652675
 20
-36.52963697524
 30
0.0
 10
134.9531615235372
 20
-39.99595387471654
 30
0.0
 10
132.2555080982902
 20
-39.81139517944413
 30
0.0
 10
127.1237484159289
 20
-40.22560379401823
 30
0.0
 10
124.1353984911567
 20
-39.85815761667124
 30
0.0
 10
125.3940427557234
 20
-38.5057992837036
 30
0.0
 10
127.1145725095012
 20
-37.53072521332617
 30
0.0
 10
129.04728327481
 20
-36.4216387638427
 30
0.0
 10
131.2799610430453
 20
-35.14035429028815
 30
0.0
 10
135.7402714075967
 20
-33.05918934125417
 30
0.0
 10
136.3227680380042
 20
-32.82345368332547
 30
0.0
 10
137.1826545269992
 20
-32.4380025486908
 30
0.0
 10
137.0511647338525
 20
-31.43625213179041
 30
0.0
 10
136.630176669512
 20
-30.5892623635138
 30
0.0
 10
136.1970801925647
 20
-29.71792964072692
 30
0.0
 10
135.4017088394876
 20
-28.87185430986075
 30
0.0
 10
134.6654290625153
 20
-28.61921732600246
 30
0.0
 10
131.3807383521332
 20
-27.53286568247967
 30
0.0
 10
127.4652434902163
 20
-27.3199278951612
 30
0.0
 10
124.1654803287255
 20
-27.39961007916134
 30
0.0
 10
121.690949631609
 20
-27.4593953664053
 30
0.0
 10
123.5399420753819
 20
-31.5982336827239
 30
0.0
 10
126.0076933227316
 20
-31.52466876967569
 30
0.0
 10
127.7747963197898
 20
-31.47200978776826
 30
0.0
 10
128.648493966914
 20
-31.42092742208516
 30
0.0
 10
130.4896979265365
 20
-31.74728698061501
 30
0.0
 10
128.4023526419014
 20
-33.10062281564136
 30
0.0
 10
126.5251072353802
 20
-34.13434700958068
 30
0.0
 10
124.7491436551394
 20
-35.18667527497203
 30
0.0
 10
123.3975420979598
 20
-35.98753325251145
 30
0.0
 10
122.088351517227
 20
-36.8333247924571
 30
0.0
 10
120.7756923807995
 20
-37.84910709375828
 30
0.0
 10
121.2885341063958
 20
-36.62139603952193
 30
0.0
 10
121.4732189309667
 20
-35.32235886727689
 30
0.0
 10
121.2376409346604
 20
-34.53622648527709
 30
0.0
 10
120.3777859779896
 20
-31.65284766875033
 30
0.0
 10
116.7556363308555
 20
-31.20174623451663
 30
0.0
 10
113.7772506206237
 20
-29.83179286448057
 30
0.0
 10
113.7772506206237
 20
-29.24869711990807
 30
0.0
 10
117.0317964287881
 20
-28.58333354072618
 30
0.0
 10
117.7379628358669
 20
-28.74080596925732
 30
0.0
 10
119.1191417134232
 20
-29.0488137149304
 30
0.0
 10
119.7640408140073
 20
-31.36962433013108
 30
0.0
 10
121.1763736281653
 20
-31.1772771507076
 30
0.0
 10
121.5751314037363
 20
-31.13858698855174
 30
0.0
 10
121.5450495661675
 20
-30.24202840616843
 30
0.0
 10
121.483782259673
 20
-30.01417582936333
 30
0.0
 10
120.9001504655835
 20
-28.11085319048419
 30
0.0
 10
120.4390532844844
 20
-25.10248023965671
 30
0.0
 10
118.3215946299562
 20
-24.63397296230129
 30
0.0
 10
116.5406804747688
 20
-24.23991350307991
 30
0.0
 10
114.9746275786953
 20
-24.62262132548294
 30
0.0
 10
112.0886946438842
 20
-25.99676849467686
 30
0.0
 10
110.8300503793175
 20
-26.62022561460404
 30
0.0
 10
109.2651011146011
 20
-27.93247483081261
 30
0.0
 10
108.5890165450911
 20
-29.08904896098695
 30
0.0
 10
107.9140356069379
 20
-30.24587534975657
 30
0.0
 10
109.9186085397728
 20
-33.44054127370416
 30
0.0
 10
110.9225031547389
 20
-33.51773240406919
 30
0.0
 10
112.8653988608601
 20
-33.66710102520479
 30
0.0
 10
117.5230069797806
 20
-34.83294565878071
 30
0.0
 10
117.8304156112883
 20
-35.45388019274817
 30
0.0
 10
118.3215946299562
 20
-36.48445115423754
 30
0.0
 10
113.5934802334633
 20
-37.52602689697649
 30
0.0
 10
112.6110591314787
 20
-37.44833124941932
 30
0.0
 10
110.032534828175
 20
-37.27093039180708
 30
0.0
 10
105.9086113013424
 20
-33.58249979858303
 30
0.0
 10
104.8494089892108
 20
-31.76075128317413
 30
0.0
 10
104.4931567870594
 20
-31.14798362125142
 30
0.0
 10
104.2573580644815
 20
-30.74241486358863
 30
0.0
 10
104.0847816525174
 20
-30.46786291420596
 30
0.0
 10
104.348612611572
 20
-29.96706653656648
 30
0.0
 10
104.5095220634729
 20
-29.52715907752842
 30
0.0
 10
104.522008863973
 20
-29.20001121088688
 30
0.0
 10
104.5763705914035
 20
-27.77834482867779
 30
0.0
 10
104.0924124750448
 20
-25.90040571101812
 30
0.0
 10
103.1408615187413
 20
-24.5339524290011
 30
0.0
 10
102.007369050098
 20
-22.90628537086273
 30
0.0
 10
100.6507853856482
 20
-22.08597194911005
 30
0.0
 10
99.39504209493556
 20
-21.8992375234467
 30
0.0
 10
98.07743238356247
 20
-21.70332719135593
 30
0.0
 10
96.78533232270631
 20
-21.87811086603496
 30
0.0
 10
95.52668805813956
 20
-22.18901958556145
 30
0.0
 10
95.31173220205287
 20
-20.04996128875392
 30
0.0
 10
93.40825190155198
 20
-16.27683487193461
 30
0.0
 10
91.81211716790897
 20
-19.2491033112145
 30
0.0
 10
90.44317283225719
 20
-21.76768466565113
 30
0.0
 10
88.77697327358502
 20
-25.48613403179511
 30
0.0
 10
87.30939582691101
 20
-29.38542127892084
 30
0.0
 10
87.1863251644047
 20
-29.39633146319629
 30
0.0
 10
87.05190286507999
 20
-29.41635448925089
 30
0.0
 10
86.90411086016938
 20
-29.44747689352828
 30
0.0
 10
84.55015977192374
 20
-29.9430704376253
 30
0.0
 10
77.29699989447223
 20
-31.21360238852648
 30
0.0
 10
74.80238310665185
 20
-30.12453896509762
 30
0.0
 10
73.33401735186519
 20
-29.48348680810236
 30
0.0
 10
72.50008196593004
 20
-29.24926470174878
 30
0.0
 10
72.77630512851151
 20
-27.88161319140144
 30
0.0
 10
72.86875790393259
 20
-27.34411318804939
 30
0.0
 10
73.11379559758811
 20
-26.8307984775852
 30
0.0
 10
73.42120422909522
 20
-26.35983167891866
 30
0.0
 10
77.8107875898033
 20
-29.45025173808357
 30
0.0
 10
81.03528309272382
 20
-29.6949110438454
 30
0.0
 10
83.15271021492778
 20
-28.45329423450637
 30
0.0
 10
84.44253994841982
 20
-27.68188744804618
 30
0.0
 10
87.35855472080004
 20
-23.90545013715516
 30
0.0
 10
86.40731908774077
 20
-21.17695809855093
 30
0.0
 10
85.82368729365184
 20
-19.48133888112448
 30
0.0
 10
83.82885784908667
 20
-17.94145781438179
 30
0.0
 10
82.63148089101505
 20
-17.69105962556237
 30
0.0
 10
79.77566132609775
 20
-17.09380586729096
 30
0.0
 10
76.6443123097381
 20
-18.22178017914731
 30
0.0
 10
74.3111725556594
 20
-20.03179866984416
 30
0.0
 10
74.12137949452024
 20
-20.17905462523868
 30
0.0
 10
72.91958801101914
 20
-21.53998975046876
 30
0.0
 10
72.91958801101914
 20
-21.53998975046876
 30
0.0
 10
72.08221560171415
 20
-21.37904876624318
 30
0.0
 10
71.08557342138175
 20
-20.46073287995788
 30
0.0
 10
70.35758664575171
 20
-19.9054801779147
 30
0.0
 10
71.18521556678793
 20
-18.61956045265969
 30
0.0
 10
71.98124909867923
 20
-17.50085664420491
 30
0.0
 10
72.49998736895619
 20
-17.01166416198002
 30
0.0
 10
72.69451027876965
 20
-16.83044789310361
 30
0.0
 10
72.73159229237657
 20
-16.39892803238128
 30
0.0
 10
72.65162631745624
 20
-15.86584255445871
 30
0.0
 10
73.26672737139164
 20
-16.16738617361013
 30
0.0
 10
73.89715313503197
 20
-16.39577479993197
 30
0.0
 10
74.49494294281947
 20
-16.4846644226851
 30
0.0
 10
79.16087559540682
 20
-17.17862782018434
 30
0.0
 10
80.94194741221658
 20
-12.51477630101347
 30
0.0
 10
82.04696619184062
 20
-10.08044931762855
 30
0.0
  0
SPLINE
  5
84
330
70
100
AcDbEntity
  8
Layer 1
100
AcDbSpline
210
0.0
220
0.0
230
1.0
 70
     9
 71
     3
 72
    23
 73
    19
 74
     0
 42
0.0000000001
 43
0.0000000001
 40
0.0
 40
0.0
 40
0.0
 40
0.0
 40
1.0
 40
1.0
 40
1.0
 40
2.0
 40
2.0
 40
2.0
 40
3.0
 40
3.0
 40
3.0
 40
4.0
 40
4.0
 40
4.0
 40
5.0
 40
5.0
 40
5.0
 40
6.0
 40
6.0
 40
6.0
 40
6.0
 10
86.09927980974338
 20
-1.706788289226306
 30
0.0
 10
86.54404324675386
 20
-3.013582413297474
 30
0.0
 10
87.69916689000103
 20
-4.49052496034689
 30
0.0
 10
88.38527873870063
 20
-4.527007859788172
 30
0.0
 10
90.3287735589871
 20
-4.630402351809298
 30
0.0
 10
94.98584562839152
 20
-5.777327590687735
 30
0.0
 10
95.29325425989895
 20
-6.399933337853362
 30
0.0
 10
95.78446481089143
 20
-7.433153014600547
 30
0.0
 10
91.05625581742501
 20
-8.485039827449307
 30
0.0
 10
90.07383471544041
 20
-8.423646391656401
 30
0.0
 10
87.49531041213712
 20
-8.289003366060418
 30
0.0
 10
86.4962402428185
 20
-7.438765768360991
 30
0.0
 10
85.4380784973951
 20
-5.655644350459056
 30
0.0
 10
85.11862451793046
 20
-5.117324506670385
 30
0.0
 10
84.89543872515076
 20
-4.74123847241143
 30
0.0
 10
84.72784442045586
 20
-4.475074121343847
 30
0.0
 10
85.27420500699149
 20
-3.381501575511669
 30
0.0
 10
85.73482920322332
 20
-2.47267691889988
 30
0.0
 10
86.09927980974338
 20
-1.706788289226306
 30
0.0
  0
SPLINE
  5
85
330
70
100
AcDbEntity
  8
Layer 1
100
AcDbSpline
210
0.0
220
0.0
230
1.0
 70
     9
 71
     3
 72
    20
 73
    16
 74
     0
 42
0.0000000001
 43
0.0000000001
 40
0.0
 40
0.0
 40
0.0
 40
0.0
 40
1.0
 40
1.0
 40
1.0
 40
2.0
 40
2.0
 40
2.0
 40
3.0
 40
3.0
 40
3.0
 40
4.0
 40
4.0
 40
4.0
 40
5.0
 40
5.0
 40
5.0
 40
5.0
 10
156.3844842548656
 20
-13.72117150389075
 30
0.0
 10
157.4894399698408
 20
-13.1202915283025
 30
0.0
 10
159.3016026586024
 20
-13.20855050456571
 30
0.0
 10
160.5903287607382
 20
-13.53929305620012
 30
0.0
 10
160.2840237605873
 20
-14.41396820538332
 30
0.0
 10
159.9766151290802
 20
-15.28665681812388
 30
0.0
 10
159.6390931276796
 20
-16.19220211298857
 30
0.0
 10
158.410562233006
 20
-17.09717982601222
 30
0.0
 10
156.9681475812795
 20
-18.08656957171062
 30
0.0
 10
156.078179254716
 20
-18.47870555913762
 30
0.0
 10
154.3895917456516
 20
-19.25427461243171
 30
0.0
 10
151.5013254188278
 20
-19.99755456544175
 30
0.0
 10
151.5649891819855
 20
-19.19940836780905
 30
0.0
 10
151.7121190080819
 20
-17.35549262827985
 30
0.0
 10
154.3272523401236
 20
-14.81534316388792
 30
0.0
 10
156.3844842548656
 20
-13.72117150389075
 30
0.0
  0
SPLINE
  5
86
330
70
100
AcDbEntity
  8
Layer 1
100
AcDbSpline
210
0.0
220
0.0
230
1.0
 70
     9
 71
     3
 72
    26
 73
    22
 74
     0
 42
0.0000000001
 43
0.0000000001
 40
0.0
 40
0.0
 40
0.0
 40
0.0
 40
1.0
 40
1.0
 40
1.0
 40
2.0
 40
2.0
 40
2.0
 40
3.0
 40
3.0
 40
3.0
 40
4.0
 40
4.0
 40
4.0
 40
5.0
 40
5.0
 40
5.0
 40
6.0
 40
6.0
 40
6.0
 40
7.0
 40
7.0
 40
7.0
 40
7.0
 10
137.4442782233389
 20
5.066197350806303
 30
0.0
 10
137.4442782233389
 20
5.066197350806303
 30
0.0
 10
141.7328950810123
 20
18.3608560046407
 30
0.0
 10
141.7328950810123
 20
18.3608560046407
 30
0.0
 10
141.7328950810123
 20
18.3608560046407
 30
0.0
 10
146.4267023084533
 20
7.381931261763281
 30
0.0
 10
146.4267023084533
 20
7.381931261763281
 30
0.0
 10
146.4267023084533
 20
7.381931261763281
 30
0.0
 10
156.5957508289863
 20
19.38518356588034
 30
0.0
 10
156.5957508289863
 20
19.38518356588034
 30
0.0
 10
156.5957508289863
 20
19.38518356588034
 30
0.0
 10
156.9998690997229
 20
4.284258767964367
 30
0.0
 10
156.9998690997229
 20
4.284258767964367
 30
0.0
 10
156.9998690997229
 20
4.284258767964367
 30
0.0
 10
169.1326246605439
 20
8.868428103134782
 30
0.0
 10
169.1326246605439
 20
8.868428103134782
 30
0.0
 10
167.5235932061822
 20
4.461060511410973
 30
0.0
 10
165.9769011573471
 20
0.393863636346188
 30
0.0
 10
165.2374366156016
 20
-1.279651421608539
 30
0.0
 10
153.6904570469355
 20
-2.768292461045726
 30
0.0
 10
141.6114325670553
 20
2.875678300421338
 30
0.0
 10
137.4442782233389
 20
5.066197350806303
 30
0.0
  0
SPLINE
  5
87
330
70
100
AcDbEntity
  8
Layer 1
100
AcDbSpline
210
0.0
220
0.0
230
1.0
 70
     9
 71
     3
 72
    17
 73
    13
 74
     0
 42
0.0000000001
 43
0.0000000001
 40
0.0
 40
0.0
 40
0.0
 40
0.0
 40
1.0
 40
1.0
 40
1.0
 40
2.0
 40
2.0
 40
2.0
 40
3.0
 40
3.0
 40
3.0
 40
4.0
 40
4.0
 40
4.0
 40
4.0
 10
165.9310216252071
 20
-19.70219128189149
 30
0.0
 10
167.3710398202724
 20
-17.40111990182523
 30
0.0
 10
170.8524922355072
 20
-13.7099459963705
 30
0.0
 10
173.2678052272201
 20
-12.62040958807379
 30
0.0
 10
174.3006465160746
 20
-12.15451949365094
 30
0.0
 10
174.9262793663911
 20
-12.0551611391656
 30
0.0
 10
174.9262793663911
 20
-13.2525065649126
 30
0.0
 10
174.9262793663911
 20
-17.45835107078455
 30
0.0
 10
170.4650860967541
 20
-22.75477255166145
 30
0.0
 10
166.0535562381974
 20
-24.12021679929484
 30
0.0
 10
163.8824610997017
 20
-24.79220216662016
 30
0.0
 10
164.8869548288331
 20
-21.37059810327855
 30
0.0
 10
165.9310216252071
 20
-19.70219128189149
 30
0.0
  0
SPLINE
  5
88
330
70
100
AcDbEntity
  8
Layer 1
100
AcDbSpline
210
0.0
220
0.0
230
1.0
 70
     9
 71
     3
 72
    17
 73
    13
 74
     0
 42
0.0000000001
 43
0.0000000001
 40
0.0
 40
0.0
 40
0.0
 40
0.0
 40
1.0
 40
1.0
 40
1.0
 40
2.0
 40
2.0
 40
2.0
 40
3.0
 40
3.0
 40
3.0
 40
4.0
 40
4.0
 40
4.0
 40
4.0
 10
146.0332734957218
 20
-35.69756199645001
 30
0.0
 10
144.7751652806719
 20
-36.13371710887312
 30
0.0
 10
143.3010291105027
 20
-35.70935508581129
 30
0.0
 10
141.8886962963447
 20
-34.95330454138064
 30
0.0
 10
142.5948627034238
 20
-34.48703605906409
 30
0.0
 10
143.3067364612369
 20
-34.07768342246206
 30
0.0
 10
143.9771136800133
 20
-33.74832829310562
 30
0.0
 10
144.7423401308717
 20
-33.37233685582017
 30
0.0
 10
148.9421304304416
 20
-31.67498336054666
 30
0.0
 10
148.7041875097973
 20
-32.92366341057203
 30
0.0
 10
148.4839657555199
 20
-34.07891318311699
 30
0.0
 10
147.1381976783717
 20
-35.31453885080187
 30
0.0
 10
146.0332734957218
 20
-35.69756199645001
 30
0.0
  0
SPLINE
  5
89
330
70
100
AcDbEntity
  8
Layer 1
100
AcDbSpline
210
0.0
220
0.0
230
1.0
 70
     9
 71
     3
 72
    20
 73
    16
 74
     0
 42
0.0000000001
 43
0.0000000001
 40
0.0
 40
0.0
 40
0.0
 40
0.0
 40
1.0
 40
1.0
 40
1.0
 40
2.0
 40
2.0
 40
2.0
 40
3.0
 40
3.0
 40
3.0
 40
4.0
 40
4.0
 40
4.0
 40
5.0
 40
5.0
 40
5.0
 40
5.0
 10
157.4980482944281
 20
-36.28601823618673
 30
0.0
 10
158.6029724770787
 20
-35.68211115744729
 30
0.0
 10
160.4140630668074
 20
-35.76336995767209
 30
0.0
 10
161.7038612679761
 20
-36.08679701002361
 30
0.0
 10
161.3964841687923
 20
-36.96330103402801
 30
0.0
 10
161.0901476363181
 20
-37.83744013369512
 30
0.0
 10
160.7526256349162
 20
-38.74465664175764
 30
0.0
 10
159.5240947402439
 20
-39.65565702876037
 30
0.0
 10
158.0816800885174
 20
-40.64999734940467
 30
0.0
 10
157.190639662921
 20
-41.04449826116897
 30
0.0
 10
155.5020521538566
 20
-41.82432417826951
 30
0.0
 10
152.6144480058471
 20
-42.56927534447835
 30
0.0
 10
152.6785216892234
 20
-41.77030930640872
 30
0.0
 10
152.8265344204063
 20
-39.92481695065454
 30
0.0
 10
155.4407848473615
 20
-37.38586571459325
 30
0.0
 10
157.4980482944281
 20
-36.28601823618673
 30
0.0
  0
SPLINE
  5
8A
330
70
100
AcDbEntity
  8
Layer 1
100
AcDbSpline
210
0.0
220
0.0
230
1.0
 70
     9
 71
     3
 72
    17
 73
    13
 74
     0
 42
0.0000000001
 43
0.0000000001
 40
0.0
 40
0.0
 40
0.0
 40
0.0
 40
1.0
 40
1.0
 40
1.0
 40
2.0
 40
2.0
 40
2.0
 40
3.0
 40
3.0
 40
3.0
 40
4.0
 40
4.0
 40
4.0
 40
4.0
 10
141.2228912646202
 20
-11.61219504465141
 30
0.0
 10
141.9881177154799
 20
-11.23182061426108
 30
0.0
 10
146.1880341443466
 20
-9.515736918237108
 30
0.0
 10
145.9500281590541
 20
-10.76529987334831
 30
0.0
 10
145.7298379371007
 20
-11.92130642168194
 30
0.0
 10
144.3832500195158
 20
-13.16216645523293
 30
0.0
 10
143.279082612654
 20
-13.55048703139576
 30
0.0
 10
142.0208482683059
 20
-13.99301167336703
 30
0.0
 10
140.5468382274345
 20
-13.57678499002535
 30
0.0
 10
139.1345684779254
 20
-12.83013107829373
 30
0.0
 10
139.8407348850049
 20
-12.35919581195211
 30
0.0
 10
140.5525455781685
 20
-11.94539711759663
 30
0.0
 10
141.2228912646202
 20
-11.61219504465141
 30
0.0
  0
SPLINE
  5
8B
330
70
100
AcDbEntity
  8
Layer 1
100
AcDbSpline
210
0.0
220
0.0
230
1.0
 70
     9
 71
     3
 72
   455
 73
   451
 74
     0
 42
0.0000000001
 43
0.0000000001
 40
0.0
 40
0.0
 40
0.0
 40
0.0
 40
1.0
 40
1.0
 40
1.0
 40
2.0
 40
2.0
 40
2.0
 40
3.0
 40
3.0
 40
3.0
 40
4.0
 40
4.0
 40
4.0
 40
5.0
 40
5.0
 40
5.0
 40
6.0
 40
6.0
 40
6.0
 40
7.0
 40
7.0
 40
7.0
 40
8.0
 40
8.0
 40
8.0
 40
9.0
 40
9.0
 40
9.0
 40
10.0
 40
10.0
 40
10.0
 40
11.0
 40
11.0
 40
11.0
 40
12.0
 40
12.0
 40
12.0
 40
13.0
 40
13.0
 40
13.0
 40
14.0
 40
14.0
 40
14.0
 40
15.0
 40
15.0
 40
15.0
 40
16.0
 40
16.0
 40
16.0
 40
17.0
 40
17.0
 40
17.0
 40
18.0
 40
18.0
 40
18.0
 40
19.0
 40
19.0
 40
19.0
 40
20.0
 40
20.0
 40
20.0
 40
21.0
 40
21.0
 40
21.0
 40
22.0
 40
22.0
 40
22.0
 40
23.0
 40
23.0
 40
23.0
 40
24.0
 40
24.0
 40
24.0
 40
25.0
 40
25.0
 40
25.0
 40
26.0
 40
26.0
 40
26.0
 40
27.0
 40
27.0
 40
27.0
 40
28.0
 40
28.0
 40
28.0
 40
29.0
 40
29.0
 40
29.0
 40
30.0
 40
30.0
 40
30.0
 40
31.0
 40
31.0
 40
31.0
 40
32.0
 40
32.0
 40
32.0
 40
33.0
 40
33.0
 40
33.0
 40
34.0
 40
34.0
 40
34.0
 40
35.0
 40
35.0
 40
35.0
 40
36.0
 40
36.0
 40
36.0
 40
37.0
 40
37.0
 40
37.0
 40
38.0
 40
38.0
 40
38.0
 40
39.0
 40
39.0
 40
39.0
 40
40.0
 40
40.0
 40
40.0
 40
41.0
 40
41.0
 40
41.0
 40
42.0
 40
42.0
 40
42.0
 40
43.0
 40
43.0
 40
43.0
 40
44.0
 40
44.0
 40
44.0
 40
45.0
 40
45.0
 40
45.0
 40
46.0
 40
46.0
 40
46.0
 40
47.0
 40
47.0
 40
47.0
 40
48.0
 40
48.0
 40
48.0
 40
49.0
 40
49.0
 40
49.0
 40
50.0
 40
50.0
 40
50.0
 40
51.0
 40
51.0
 40
51.0
 40
52.0
 40
52.0
 40
52.0
 40
53.0
 40
53.0
 40
53.0
 40
54.0
 40
54.0
 40
54.0
 40
55.0
 40
55.0
 40
55.0
 40
56.0
 40
56.0
 40
56.0
 40
57.0
 40
57.0
 40
57.0
 40
58.0
 40
58.0
 40
58.0
 40
59.0
 40
59.0
 40
59.0
 40
60.0
 40
60.0
 40
60.0
 40
61.0
 40
61.0
 40
61.0
 40
62.0
 40
62.0
 40
62.0
 40
63.0
 40
63.0
 40
63.0
 40
64.0
 40
64.0
 40
64.0
 40
65.0
 40
65.0
 40
65.0
 40
66.0
 40
66.0
 40
66.0
 40
67.0
 40
67.0
 40
67.0
 40
68.0
 40
68.0
 40
68.0
 40
69.0
 40
69.0
 40
69.0
 40
70.0
 40
70.0
 40
70.0
 40
71.0
 40
71.0
 40
71.0
 40
72.0
 40
72.0
 40
72.0
 40
73.0
 40
73.0
 40
73.0
 40
74.0
 40
74.0
 40
74.0
 40
75.0
 40
75.0
 40
75.0
 40
76.0
 40
76.0
 40
76.0
 40
77.0
 40
77.0
 40
77.0
 40
78.0
 40
78.0
 40
78.0
 40
79.0
 40
79.0
 40
79.0
 40
80.0
 40
80.0
 40
80.0
 40
81.0
 40
81.0
 40
81.0
 40
82.0
 40
82.0
 40
82.0
 40
83.0
 40
83.0
 40
83.0
 40
84.0
 40
84.0
 40
84.0
 40
85.0
 40
85.0
 40
85.0
 40
86.0
 40
86.0
 40
86.0
 40
87.0
 40
87.0
 40
87.0
 40
88.0
 40
88.0
 40
88.0
 40
89.0
 40
89.0
 40
89.0
 40
90.0
 40
90.0
 40
90.0
 40
91.0
 40
91.0
 40
91.0
 40
92.0
 40
92.0
 40
92.0
 40
93.0
 40
93.0
 40
93.0
 40
94.0
 40
94.0
 40
94.0
 40
95.0
 40
95.0
 40
95.0
 40
96.0
 40
96.0
 40
96.0
 40
97.0
 40
97.0
 40
97.0
 40
98.0
 40
98.0
 40
98.0
 40
99.0
 40
99.0
 40
99.0
 40
100.0
 40
100.0
 40
100.0
 40
101.0
 40
101.0
 40
101.0
 40
102.0
 40
102.0
 40
102.0
 40
103.0
 40
103.0
 40
103.0
 40
104.0
 40
104.0
 40
104.0
 40
105.0
 40
105.0
 40
105.0
 40
106.0
 40
106.0
 40
106.0
 40
107.0
 40
107.0
 40
107.0
 40
108.0
 40
108.0
 40
108.0
 40
109.0
 40
109.0
 40
109.0
 40
110.0
 40
110.0
 40
110.0
 40
111.0
 40
111.0
 40
111.0
 40
112.0
 40
112.0
 40
112.0
 40
113.0
 40
113.0
 40
113.0
 40
114.0
 40
114.0
 40
114.0
 40
115.0
 40
115.0
 40
115.0
 40
116.0
 40
116.0
 40
116.0
 40
117.0
 40
117.0
 40
117.0
 40
118.0
 40
118.0
 40
118.0
 40
119.0
 40
119.0
 40
119.0
 40
120.0
 40
120.0
 40
120.0
 40
121.0
 40
121.0
 40
121.0
 40
122.0
 40
122.0
 40
122.0
 40
123.0
 40
123.0
 40
123.0
 40
124.0
 40
124.0
 40
124.0
 40
125.0
 40
125.0
 40
125.0
 40
126.0
 40
126.0
 40
126.0
 40
127.0
 40
127.0
 40
127.0
 40
128.0
 40
128.0
 40
128.0
 40
129.0
 40
129.0
 40
129.0
 40
130.0
 40
130.0
 40
130.0
 40
131.0
 40
131.0
 40
131.0
 40
132.0
 40
132.0
 40
132.0
 40
133.0
 40
133.0
 40
133.0
 40
134.0
 40
134.0
 40
134.0
 40
135.0
 40
135.0
 40
135.0
 40
136.0
 40
136.0
 40
136.0
 40
137.0
 40
137.0
 40
137.0
 40
138.0
 40
138.0
 40
138.0
 40
139.0
 40
139.0
 40
139.0
 40
140.0
 40
140.0
 40
140.0
 40
141.0
 40
141.0
 40
141.0
 40
142.0
 40
142.0
 40
142.0
 40
143.0
 40
143.0
 40
143.0
 40
144.0
 40
144.0
 40
144.0
 40
145.0
 40
145.0
 40
145.0
 40
146.0
 40
146.0
 40
146.0
 40
147.0
 40
147.0
 40
147.0
 40
148.0
 40
148.0
 40
148.0
 40
149.0
 40
149.0
 40
149.0
 40
150.0
 40
150.0
 40
150.0
 40
150.0
 10
181.3638556707648
 20
-29.62730574012672
 30
0.0
 10
180.9025692957169
 20
-26.84451503874087
 30
0.0
 10
179.4897634966927
 20
-25.46598487644239
 30
0.0
 10
176.2680743706534
 20
-26.4534511503464
 30
0.0
 10
173.5768535396018
 20
-27.278305226827
 30
0.0
 10
169.0317842868062
 20
-31.70096599593081
 30
0.0
 10
166.7989488569488
 20
-34.79138605509572
 30
0.0
 10
166.995395238556
 20
-34.1813617054037
 30
0.0
 10
167.1435656313606
 20
-33.63578942698072
 30
0.0
 10
167.2296173449096
 20
-33.16340367371223
 30
0.0
 10
167.6551145316538
 20
-30.82761520437636
 30
0.0
 10
165.4496806917812
 20
-25.09308360695703
 30
0.0
 10
163.7299392461165
 20
-30.0385818485225
 30
0.0
 10
163.5461373266311
 20
-30.59351922732088
 30
0.0
 10
163.3311814705454
 20
-31.15324951944181
 30
0.0
 10
163.1463074520272
 20
-31.73757502466988
 30
0.0
 10
162.4100276750543
 20
-31.37334514442174
 30
0.0
 10
161.6114400248794
 20
-31.10169416889183
 30
0.0
 10
160.7526256349162
 20
-30.88544548750068
 30
0.0
 10
157.805425393612
 20
-30.13715189489615
 30
0.0
 10
153.6300411132022
 20
-33.2630142867938
 30
0.0
 10
152.0024686520361
 20
-35.53658947990015
 30
0.0
 10
150.7373287286253
 20
-37.30385013858042
 30
0.0
 10
150.1769362576892
 20
-38.83575352722568
 30
0.0
 10
149.9642191966417
 20
-40.34239952394989
 30
0.0
 10
149.730470075156
 20
-40.32234496557068
 30
0.0
 10
149.3974887284811
 20
-40.39026559253414
 30
0.0
 10
148.9503288348103
 20
-40.5725539604434
 30
0.0
 10
146.5919947534595
 20
-41.53403759896327
 30
0.0
 10
142.6647383345057
 20
-42.44844347701122
 30
0.0
 10
140.1700269497124
 20
-41.56036708991716
 30
0.0
 10
138.7027648262832
 20
-41.03803413464762
 30
0.0
 10
137.8677258089903
 20
-40.83594346695505
 30
0.0
 10
138.143980503896
 20
-39.45347176409429
 30
0.0
 10
138.23532964796
 20
-38.91086352417424
 30
0.0
 10
138.481470972973
 20
-38.38439983439575
 30
0.0
 10
138.7888796044801
 20
-37.89429291476074
 30
0.0
 10
143.1784944975131
 20
-40.71148538217076
 30
0.0
 10
146.4019494337247
 20
-40.40032440404837
 30
0.0
 10
148.5203855903133
 20
-38.7533595633185
 30
0.0
 10
149.8091116924475
 20
-37.73502314373333
 30
0.0
 10
152.7262300961843
 20
-33.28890232520476
 30
0.0
 10
151.7739223640928
 20
-30.78365914402914
 30
0.0
 10
151.7075468210303
 20
-30.60603756014559
 30
0.0
 10
151.620769864018
 20
-30.43516389370391
 30
0.0
 10
151.5209385246651
 20
-30.27021830426716
 30
0.0
 10
152.1188859940753
 20
-30.4864985179826
 30
0.0
 10
152.7490910314434
 20
-30.60783490264187
 30
0.0
 10
153.3766788858805
 20
-30.56044181892514
 30
0.0
 10
157.1948649944032
 20
-30.27204717908837
 30
0.0
 10
159.614907834792
 20
-26.42081519449357
 30
0.0
 10
161.0245919336916
 20
-23.49351184994421
 30
0.0
 10
161.021375636593
 20
-23.61689783569566
 30
0.0
 10
161.0190107122564
 20
-23.74230189021468
 30
0.0
 10
161.0190107122564
 20
-23.87376015103738
 30
0.0
 10
161.0190107122564
 20
-26.45228445434005
 30
0.0
 10
164.6111415864696
 20
-28.40902285091467
 30
0.0
 10
167.6496909718404
 20
-27.49562600725067
 30
0.0
 10
171.2729757826553
 20
-26.4064364545237
 30
0.0
 10
173.4828241479564
 20
-24.29528426489407
 30
0.0
 10
175.4475717549524
 20
-21.07993313607765
 30
0.0
 10
178.2409888496922
 20
-16.56727911286357
 30
0.0
 10
178.6691978163425
 20
-14.217206500531
 30
0.0
 10
178.2409888496922
 20
-11.62373587541678
 30
0.0
 10
177.7797024746468
 20
-8.829877328133083
 30
0.0
 10
176.3669597402718
 20
-7.413886764333976
 30
0.0
 10
173.1453336788804
 20
-8.338950568061457
 30
0.0
 10
170.6843934136217
 20
-9.045589960007813
 30
0.0
 10
166.6726303650184
 20
-12.7523408337637
 30
0.0
 10
164.2965120526528
 20
-15.72331644773848
 30
0.0
 10
165.9938655479263
 20
-11.50801224451796
 30
0.0
 10
167.8259251334453
 20
-6.772109363874641
 30
0.0
 10
168.67401853308
 20
-4.179363982224175
 30
0.0
 10
169.6778500833972
 20
-2.486078156810421
 30
0.0
 10
171.2449120138537
 20
1.6105383770093
 30
0.0
 10
174.8980579359677
 20
11.87796774996796
 30
0.0
 10
174.8980579359677
 20
11.87796774996796
 30
0.0
 10
176.4899042734781
 20
16.35413887374107
 30
0.0
 10
176.4899042734781
 20
16.35413887374107
 30
0.0
 10
176.4899042734781
 20
16.35413887374107
 30
0.0
 10
161.2347233441302
 20
10.59031374686589
 30
0.0
 10
161.2347233441302
 20
10.59031374686589
 30
0.0
 10
161.2347233441302
 20
10.59031374686589
 30
0.0
 10
160.6887096131642
 20
31.02672857570929
 30
0.0
 10
160.6887096131642
 20
31.02672857570929
 30
0.0
 10
160.6887096131642
 20
31.02672857570929
 30
0.0
 10
147.6735219513338
 20
15.6646215339956
 30
0.0
 10
147.6735219513338
 20
15.6646215339956
 30
0.0
 10
147.6735219513338
 20
15.6646215339956
 30
0.0
 10
141.1546237820873
 20
30.91065808924073
 30
0.0
 10
141.1546237820873
 20
30.91065808924073
 30
0.0
 10
141.1546237820873
 20
30.91065808924073
 30
0.0
 10
132.162550805677
 20
3.033686778468898
 30
0.0
 10
132.162550805677
 20
3.033686778468898
 30
0.0
 10
132.162550805677
 20
3.033686778468898
 30
0.0
 10
133.1176964469736
 20
2.456676772524042
 30
0.0
 10
133.1176964469736
 20
2.456676772524042
 30
0.0
 10
132.0055513620137
 20
2.077185247219227
 30
0.0
 10
131.0513516904524
 20
1.176842785896679
 30
0.0
 10
130.9997648075775
 20
-0.1782273269773677
 30
0.0
 10
130.907974210971
 20
-2.589535713480444
 30
0.0
 10
132.23271022768
 20
-4.427649505302513
 30
0.0
 10
134.5629805402295
 20
-4.667768156336413
 30
0.0
 10
136.208053441489
 20
-4.837317465149343
 30
0.0
 10
137.5414923797589
 20
-1.913261950023434
 30
0.0
 10
137.366014993941
 20
-0.463279540417503
 30
0.0
 10
137.3371629170274
 20
-0.2249266995552695
 30
0.0
 10
137.2977159790832
 20
-0.0003850168222064
 30
0.0
 10
137.2512058004523
 20
0.2160213261910267
 30
0.0
 10
142.1489010380824
 20
-2.173561288734347
 30
0.0
 10
151.4116790202876
 20
-5.932088239311835
 30
0.0
 10
161.2390432725861
 20
-5.932088239311835
 30
0.0
 10
161.9436330634403
 20
-5.932088239311835
 30
0.0
 10
162.651817539287
 20
-5.905443425113154
 30
0.0
 10
163.361042581842
 20
-5.8648297911629
 30
0.0
 10
163.0742560905544
 20
-6.372689409489041
 30
0.0
 10
162.8202001520926
 20
-6.919207657646437
 30
0.0
 10
162.6164067388786
 20
-7.503785421470735
 30
0.0
 10
162.4326048193933
 20
-8.057429974964655
 30
0.0
 10
162.2176489633062
 20
-8.615709780159042
 30
0.0
 10
162.0338470438222
 20
-9.198647863109465
 30
0.0
 10
161.2964951678164
 20
-8.829782731159898
 30
0.0
 10
160.4979075176414
 20
-8.553433439280302
 30
0.0
 10
159.6390931276796
 20
-8.332990958731924
 30
0.0
 10
156.6918928863741
 20
-7.570224029183053
 30
0.0
 10
152.5165086059643
 20
-10.69141963705562
 30
0.0
 10
150.8889361447995
 20
-12.96594079989639
 30
0.0
 10
149.7996835274242
 20
-14.48813223259748
 30
0.0
 10
149.2341828199195
 20
-15.83579224921449
 30
0.0
 10
148.9616174069804
 20
-17.1430278258289
 30
0.0
 10
148.9608290988665
 20
-17.14334314907338
 30
0.0
 10
148.9601984523769
 20
-17.1434377460472
 30
0.0
 10
148.9594101442642
 20
-17.14375306929201
 30
0.0
 10
146.6009499336169
 20
-18.11343511218092
 30
0.0
 10
139.9105159191138
 20
-20.31902661367459
 30
0.0
 10
137.4158991312931
 20
-19.44920744246315
 30
0.0
 10
135.9486685401886
 20
-18.93762700984699
 30
0.0
 10
135.113597990571
 20
-18.7425995828414
 30
0.0
 10
135.3898211531531
 20
-17.35788908494144
 30
0.0
 10
135.4812018295407
 20
-16.81455560155797
 30
0.0
 10
135.7273431545537
 20
-16.28610537533618
 30
0.0
 10
136.033648154704
 20
-15.79347586974147
 30
0.0
 10
140.4243036144449
 20
-18.57642423275004
 30
0.0
 10
143.6477270183316
 20
-18.25041152978992
 30
0.0
 10
145.7662262395694
 20
-16.59565820490963
 30
0.0
 10
147.0549838740286
 20
-15.57256040432524
 30
0.0
 10
149.972070745441
 20
-11.12000699159993
 30
0.0
 10
149.0197630133495
 20
-8.616655749894412
 30
0.0
 10
148.4372033182935
 20
-7.059148113758383
 30
0.0
 10
146.4412387100465
 20
-5.95813393934552
 30
0.0
 10
145.2438617519746
 20
-5.933381064616618
 30
0.0
 10
142.3891142860902
 20
-5.874321020836089
 30
0.0
 10
138.8065061738731
 20
-6.968240422237678
 30
0.0
 10
136.9246885803004
 20
-9.398089815544215
 30
0.0
 10
135.9185236379702
 20
-10.69728464941165
 30
0.0
 10
134.9464766707446
 20
-10.43430506311863
 30
0.0
 10
134.1895432212281
 20
-10.05358377715825
 30
0.0
 10
134.2784013116563
 20
-8.179996120278849
 30
0.0
 10
132.4574726366847
 20
-3.844269969809815
 30
0.0
 10
130.6085432575603
 20
-6.793929732425528
 30
0.0
 10
128.6830849268855
 20
-9.865619590840296
 30
0.0
 10
127.1128382316538
 20
-13.91761788549826
 30
0.0
 10
126.3414314451933
 20
-16.76240113684234
 30
0.0
 10
126.2762541304608
 20
-17.00277204647215
 30
0.0
 10
126.2409379270259
 20
-17.25575588590049
 30
0.0
 10
126.230689921565
 20
-17.51476239930726
 30
0.0
 10
126.0573252014882
 20
-17.19417325616057
 30
0.0
 10
123.5363789227139
 20
-17.0503227918116
 30
0.0
 10
122.9706890212628
 20
-16.71144490045768
 30
0.0
 10
121.2728310087969
 20
-15.69443283850093
 30
0.0
 10
120.4838922499172
 20
-14.3858729042581
 30
0.0
 10
120.0462551182432
 20
-12.98804495936811
 30
0.0
 10
120.7835754619237
 20
-12.08811241826355
 30
0.0
 10
123.6383544601328
 20
-11.11925021581189
 30
0.0
 10
124.6820744009371
 20
-10.75073193943174
 30
0.0
 10
125.2657061950261
 20
-10.5467177999451
 30
0.0
 10
129.0505626365574
 20
-9.438356593924735
 30
0.0
 10
129.0717208262938
 20
-8.990408392140349
 30
0.0
 10
129.1722774091104
 20
-6.861881891713608
 30
0.0
 10
125.9306913863139
 20
-6.115448706253935
 30
0.0
 10
124.5283227866963
 20
-6.333431665491825
 30
0.0
 10
122.5436782829435
 20
-6.641849331383537
 30
0.0
 10
120.3224782808241
 20
-7.276941879049584
 30
0.0
 10
118.3576676091795
 20
-8.139256357030481
 30
0.0
 10
120.1074908924137
 20
-5.391308874212676
 30
0.0
 10
122.7485122628668
 20
-1.500062369832951
 30
0.0
 10
123.8533103162195
 20
-0.6254187529740346
 30
0.0
 10
124.8957689640433
 20
0.1998767760494805
 30
0.0
 10
122.749174441681
 20
6.250141538642443
 30
0.0
 10
120.2923018462821
 20
2.92843187930228
 30
0.0
 10
118.9552051583707
 20
1.120683715969877
 30
0.0
 10
117.4677623472642
 20
-0.9282551974295897
 30
0.0
 10
116.0574791341987
 20
-3.097174605534966
 30
0.0
 10
114.482565654941
 20
-2.116203990477229
 30
0.0
 10
111.502887119405
 20
-1.098466685057054
 30
0.0
 10
110.3386506343783
 20
-0.7705305103028659
 30
0.0
 10
111.1060843479523
 20
0.1927504707135974
 30
0.0
 10
111.8122507550311
 20
0.9565264346457725
 30
0.0
 10
112.2723073694219
 20
1.3145759792934
 30
0.0
 10
113.2858508756842
 20
2.103451673524209
 30
0.0
 10
111.5047790588748
 20
8.971538804235393
 30
0.0
 10
109.0187705956414
 20
5.729921249113996
 30
0.0
 10
107.7601263310754
 20
4.081758180053168
 30
0.0
 10
106.3478565815663
 20
2.257297884738188
 30
0.0
 10
104.9967910739034
 20
0.3594303379967672
 30
0.0
 10
98.52711486319456
 20
3.420619932354078
 30
0.0
 10
97.90290096747902
 20
3.932137300321665
 30
0.0
 10
95.7843702139179
 20
4.416757595495305
 30
0.0
 10
94.0033929940823
 20
4.824186760302302
 30
0.0
 10
92.43847526168956
 20
4.446713303765702
 30
0.0
 10
89.55254232687913
 20
3.018425133412864
 30
0.0
 10
88.52193983306483
 20
2.488587484913435
 30
0.0
 10
87.29299901817356
 20
1.482895527450443
 30
0.0
 10
86.50809639682901
 20
0.4883660128594436
 30
0.0
 10
86.21074657683546
 20
3.11765735860073
 30
0.0
 10
84.28352243598896
 20
7.195764417940959
 30
0.0
 10
82.87566721190936
 20
3.732569218589123
 30
0.0
 10
82.59941251700327
 20
3.017447631353526
 30
0.0
 10
82.41561059751825
 20
2.161660344543193
 30
0.0
 10
82.01578072291434
 20
1.468548319805172
 30
0.0
 10
79.4372564196107
 20
-2.810577308194783
 30
0.0
 10
76.02993649926549
 20
-4.728404816341599
 30
0.0
 10
73.51261643780775
 20
-5.411867949783709
 30
0.0
 10
73.17402233737467
 20
-4.135943971393699
 30
0.0
 10
74.95503108953489
 20
-1.015946591852086
 30
0.0
 10
76.12131717565372
 20
0.3044064317520253
 30
0.0
 10
77.80987315239285
 20
2.217945543767788
 30
0.0
 10
76.23697774190365
 20
6.205239508560817
 30
0.0
 10
75.13883300901958
 20
6.197924009277603
 30
0.0
 10
74.37868326240423
 20
6.192878837358509
 30
0.0
 10
73.41631671879854
 20
4.938081516380564
 30
0.0
 10
72.35506480557439
 20
3.334158298587147
 30
0.0
 10
72.31549173833236
 20
3.653959133621827
 30
0.0
 10
72.198506814454
 20
3.99242710475744
 30
0.0
 10
72.04081365965158
 20
4.309610756858908
 30
0.0
 10
71.60771718270459
 20
5.180817350347675
 30
0.0
 10
70.81221970032939
 20
6.019766375877959
 30
0.0
 10
70.07593992335744
 20
6.252285736708451
 30
0.0
 10
66.79118614832576
 20
7.248801787742737
 30
0.0
 10
62.87367321764202
 20
7.075500132315176
 30
0.0
 10
59.57580199562031
 20
6.436339914789053
 30
0.0
 10
57.09884330951757
 20
5.956323338992551
 30
0.0
 10
58.94707897750243
 20
2.169543425666796
 30
0.0
 10
61.41807805427596
 20
2.600937157091328
 30
0.0
 10
63.18369903208267
 20
2.909197161360317
 30
0.0
 10
64.05894176310659
 20
3.062885710951895
 30
0.0
 10
65.90014572272939
 20
2.891412930344576
 30
0.0
 10
63.81280043809393
 20
1.362505112526867
 30
0.0
 10
61.9378884235861
 20
0.0874955715469792
 30
0.0
 10
60.15943378970924
 20
-1.253984109469516
 30
0.0
 10
58.92774966258696
 20
-2.183052518407856
 30
0.0
 10
57.26523938588087
 20
-3.302323908703665
 30
0.0
 10
55.74465610172968
 20
-4.542143375546093
 30
0.0
 10
56.22350598151983
 20
-3.235191589852523
 30
0.0
 10
56.39144714178318
 20
-1.957754059886432
 30
0.0
 10
56.16280625686575
 20
-1.246889336458242
 30
0.0
 10
55.30295130019534
 20
1.440516083328524
 30
0.0
 10
51.68073858841232
 20
0.9905813451011733
 30
0.0
 10
48.702447475154
 20
1.384483142699835
 30
0.0
 10
48.702447475154
 20
1.967610419597268
 30
0.0
 10
51.95696175099316
 20
3.632201829719837
 30
0.0
 10
52.66312815807263
 20
3.668810858459232
 30
0.0
 10
54.04430703562926
 20
3.740357702739862
 30
0.0
 10
54.68920613621297
 20
1.58269533447934
 30
0.0
 10
56.10153895037095
 20
2.098059646035384
 30
0.0
 10
56.50029672594234
 20
2.227941290632469
 30
0.0
 10
56.47021488837351
 20
3.116774453514897
 30
0.0
 10
56.40787548284555
 20
3.330847404515112
 30
0.0
 10
55.82531578778947
 20
5.103090170466214
 30
0.0
 10
55.36421860669013
 20
8.030614241286558
 30
0.0
 10
53.24679148448584
 20
7.933746940435998
 30
0.0
 10
51.46578273232563
 20
7.852235881614975
 30
0.0
 10
49.89972983625178
 20
7.031985524511195
 30
0.0
 10
47.01385996608992
 20
4.647164290584078
 30
0.0
 10
45.75521570152352
 20
3.582916806533653
 30
0.0
 10
44.19026643680679
 20
1.672657056265316
 30
0.0
 10
43.5141818672968
 20
0.2479005062561321
 30
0.0
 10
42.83920092914393
 20
-1.176698382130329
 30
0.0
 10
44.84664330350731
 20
-3.580312881456492
 30
0.0
 10
45.84766847694459
 20
-3.291256062805499
 30
0.0
 10
47.79904637835467
 20
-2.727710359420081
 30
0.0
 10
52.44817230198626
 20
-2.482105083923851
 30
0.0
 10
52.75558093349371
 20
-3.01894290846137
 30
0.0
 10
53.24679148448584
 20
-3.915091570626371
 30
0.0
 10
48.51864555566866
 20
-6.363734229332274
 30
0.0
 10
47.53622445368374
 20
-6.623245259930859
 30
0.0
 10
44.95770015038075
 20
-7.330956750910378
 30
0.0
 10
43.95601279812892
 20
-6.855890750059785
 30
0.0
 10
42.90046823563872
 20
-5.467743228789996
 30
0.0
 10
42.39951419637717
 20
-4.808969905428212
 30
0.0
 10
41.0093170740152
 20
-3.14232889421282
 30
0.0
 10
39.99362936968721
 20
-1.994773008844135
 30
0.0
 10
41.30278841809568
 20
0.4346664642437724
 30
0.0
 10
42.71638252523351
 20
2.766923313236316
 30
0.0
 10
44.06558762575121
 20
4.78300554451134
 30
0.0
 10
45.69287629599588
 20
7.204309677879417
 30
0.0
 10
43.6982045130528
 20
12.44290087563135
 30
0.0
 10
42.10077695410566
 20
9.963545732866686
 30
0.0
 10
39.89777110322059
 20
6.544275061537459
 30
0.0
 10
36.79007133023239
 20
-0.3992373893670979
 30
0.0
 10
34.51788355940401
 20
-4.763657955127635
 30
0.0
 10
34.51788355940401
 20
-3.535631577646485
 30
0.0
 10
35.50027312906464
 20
1.054686560800474
 30
0.0
 10
35.80768176057176
 20
2.11533935985867
 30
0.0
 10
36.45150876212328
 20
4.274609876668777
 30
0.0
 10
33.66067731799141
 20
5.866519278828977
 30
0.0
 10
32.1231296432611
 20
3.693185345294434
 30
0.0
 10
30.84629122746097
 20
1.888338155815438
 30
0.0
 10
27.94847060631511
 20
-3.481553641136472
 30
0.0
 10
25.89123869157342
 20
-7.249761015333838
 30
0.0
 10
26.44368501673638
 20
-4.235806843071492
 30
0.0
 10
28.31607444528483
 20
0.3692999555639758
 30
0.0
 10
29.05339478896565
 20
1.886666942616956
 30
0.0
 10
30.4044602966282
 20
4.724923002790148
 30
0.0
 10
27.14985142381553
 20
6.854300875978115
 30
0.0
 10
25.79878591615234
 20
3.949606208092924
 30
0.0
 10
23.37395016244061
 20
-1.289237248255553
 30
0.0
 10
21.59786045290137
 20
-8.541325026674224
 30
0.0
 10
21.77674332976477
 20
-13.72249586151982
 30
0.0
 10
21.83063207232777
 20
-15.28230535734329
 30
0.0
 10
24.45443679360673
 20
-17.84071203761849
 30
0.0
 10
25.36884267165435
 20
-15.35019445198248
 30
0.0
 10
26.57031883191065
 20
-12.07792747745122
 30
0.0
 10
29.39088525804193
 20
-7.57993598512786
 30
0.0
 10
31.23316131669725
 20
-4.597766395956153
 30
0.0
 10
31.32454199308549
 20
-7.546480188837457
 30
0.0
 10
31.1895836442447
 20
-9.043414229617518
 30
0.0
 10
31.35569592968748
 20
-10.72944762039727
 30
0.0
 10
31.52411007481803
 20
-12.43909872222387
 30
0.0
 10
34.88652796508195
 20
-14.51480857912045
 30
0.0
 10
35.65396167865622
 20
-11.95378471591237
 30
0.0
 10
36.27675661976853
 20
-9.913737918020453
 30
0.0
 10
37.16845922417976
 20
-7.717385387604387
 30
0.0
 10
38.2082691567464
 20
-5.517122848950006
 30
0.0
 10
38.75283240078577
 20
-6.257470295782351
 30
0.0
 10
39.51777506072429
 20
-7.378192173005023
 30
0.0
 10
40.46434390975753
 20
-8.461548245700258
 30
0.0
 10
37.92889276171561
 20
-12.65462216015127
 30
0.0
 10
33.63545145839499
 20
-22.2640665178608
 30
0.0
 10
31.64226169470369
 20
-26.73670602129026
 30
0.0
 10
31.33485306319593
 20
-23.47963762716678
 30
0.0
 10
32.26937656427168
 20
-19.91601197429644
 30
0.0
 10
32.13340918104662
 20
-16.64983073839315
 30
0.0
 10
32.07813301620597
 20
-15.32150003669129
 30
0.0
 10
29.27755808380501
 20
-14.01234098828314
 30
0.0
 10
28.57139167672587
 20
-14.89366945793502
 30
0.0
 10
24.42794964103077
 20
-20.02984366572516
 30
0.0
 10
19.23549023401571
 20
-30.30827781993342
 30
0.0
 10
19.1774392246188
 20
-35.88376037259695
 30
0.0
 10
19.17419139519599
 20
-36.19400691330858
 30
0.0
 10
19.26661263829277
 20
-36.51270411698613
 30
0.0
 10
19.41254423605822
 20
-36.82260380212899
 30
0.0
 10
18.41908682050006
 20
-36.62322491434313
 30
0.0
 10
17.38372294568687
 20
-36.57592642759927
 30
0.0
 10
16.30046146996546
 20
-36.74825058096781
 30
0.0
 10
9.703552329916346
 20
-37.94386172886744
 30
0.0
 10
9.850335300443338
 20
-47.94386545777995
 30
0.0
 10
17.14139703193839
 20
-47.27591622798946
 30
0.0
 10
20.20813631540693
 20
-46.92962824037882
 30
0.0
 10
23.05235198490998
 20
-46.03861934710642
 30
0.0
 10
25.9149509995944
 20
-45.19780991443128
 30
0.0
 10
25.9149509995944
 20
-45.19780991443128
 30
0.0
 10
27.29182677571934
 20
-142.2043901197549
 30
0.0
 10
27.29182677571934
 20
-142.2043901197549
 30
0.0
 10
27.29182677571934
 20
-142.2043901197549
 30
0.0
 10
29.23377651210545
 20
-142.2043901197549
 30
0.0
 10
29.23377651210545
 20
-142.2043901197549
 30
0.0
 10
29.23377651210545
 20
-142.2043901197549
 30
0.0
 10
30.27606067128226
 20
-45.38400829057788
 30
0.0
 10
30.27606067128226
 20
-45.38400829057788
 30
0.0
 10
30.37891911378729
 20
-45.43351404003601
 30
0.0
 10
30.48139916839798
 20
-45.4848486643147
 30
0.0
 10
30.58428914322697
 20
-45.53410215517692
 30
0.0
 10
37.68413885898092
 20
-48.91600702197903
 30
0.0
 10
45.86450673822496
 20
-51.79522357167221
 30
0.0
 10
53.28002655450462
 20
-54.44188922821028
 30
0.0
 10
59.91401770816034
 20
-56.75806459171018
 30
0.0
 10
83.90081461358594
 20
-65.2165160406812
 30
0.0
 10
83.99068173839808
 20
-52.6740925200136
 30
0.0
 10
83.58615354744385
 20
-45.13963277573722
 30
0.0
 10
68.65083651777853
 20
-40.4974124311699
 30
0.0
 10
63.45985913001494
 20
-45.51467824328763
 30
0.0
 10
62.23826534673117
 20
-46.61023732556277
 30
0.0
 10
61.57403693123102
 20
-48.26227887053602
 30
0.0
 10
61.47950302239348
 20
-49.83936808018374
 30
0.0
 10
61.44503819171944
 20
-50.28413151719389
 30
0.0
 10
61.72848225661064
 20
-50.70578176034932
 30
0.0
 10
62.17457005124986
 20
-50.82904161680266
 30
0.0
 10
62.69166864065327
 20
-50.97314433974722
 30
0.0
 10
63.22711904291283
 20
-50.65630754321549
 30
0.0
 10
63.3530591469486
 20
-50.13514128395232
 30
0.0
 10
64.83217742438798
 20
-44.95936247659586
 30
0.0
 10
71.37005805298151
 20
-46.554835031424
 30
0.0
 10
75.09033629394572
 20
-48.30188347010264
 30
0.0
 10
76.91060279010283
 20
-49.2609706519606
 30
0.0
 10
79.02358385455335
 20
-50.445135566069
 30
0.0
 10
79.76222855586228
 20
-52.3723597069155
 30
0.0
 10
80.18249137674008
 20
-54.12249831339424
 30
0.0
 10
78.86677360483642
 20
-54.82598447289127
 30
0.0
 10
77.00437992315298
 20
-55.20803011647977
 30
0.0
 10
71.98802854844569
 20
-56.04950172796944
 30
0.0
 10
66.7353424016444
 20
-55.06742748155392
 30
0.0
 10
61.74330244912344
 20
-54.09563277292425
 30
0.0
 10
51.41315528274247
 20
-52.09512750995007
 30
0.0
 10
41.35626724044037
 20
-48.35255591556745
 30
0.0
 10
31.98681540446664
 20
-43.57830972833735
 30
0.0
 10
43.94636390683333
 20
-40.6734258665045
 30
0.0
 10
56.39614545813318
 20
-39.90968143489694
 30
0.0
 10
68.65439967044647
 20
-41.03267363948309
 30
0.0
 10
79.28177052752285
 20
-42.10136718128793
 30
0.0
 10
89.54393400229177
 20
-45.36565647772112
 30
0.0
 10
99.78960607134908
 20
-48.38780905435315
 30
0.0
 10
110.1332490726141
 20
-51.49957649720176
 30
0.0
 10
120.6449593634409
 20
-54.33985062614284
 30
0.0
 10
131.3892205474224
 20
-55.7813193081346
 30
0.0
 10
139.4654686911825
 20
-56.8953878648886
 30
0.0
 10
148.6198070094475
 20
-57.34276848483227
 30
0.0
 10
156.0283897143374
 20
-52.8873140982526
 30
0.0
 10
158.6561359761776
 20
-51.24615120523017
 30
0.0
 10
161.1072066238697
 20
-48.88258275801388
 30
0.0
 10
162.2409828834332
 20
-45.90643584282124
 30
0.0
 10
162.2809658708945
 20
-45.74142718873559
 30
0.0
 10
162.3012726878693
 20
-45.58386016323127
 30
0.0
 10
162.3107954498665
 20
-45.43114911569871
 30
0.0
 10
162.5735858422128
 20
-45.00918354929878
 30
0.0
 10
162.7837172526514
 20
-44.61644844770615
 30
0.0
 10
162.9313515959402
 20
-44.26934061965826
 30
0.0
 10
163.3645742021853
 20
-43.25150871726457
 30
0.0
 10
163.7766701510184
 20
-42.29286298794987
 30
0.0
 10
164.1638240311758
 20
-41.38939882650197
 30
0.0
 10
164.1498236790996
 20
-41.63084183516494
 30
0.0
 10
164.1418144686772
 20
-41.88474011200308
 30
0.0
 10
164.1418144686772
 20
-42.15919746441289
 30
0.0
 10
164.1418144686772
 20
-43.82252758155593
 30
0.0
 10
165.6388115741062
 20
-45.20755340270038
 30
0.0
 10
167.5154578664627
 20
-45.72799441850044
 30
0.0
 10
167.5154578664627
 20
-45.72799441850044
 30
0.0
 10
168.9961842924514
 20
-142.3979344499654
 30
0.0
 10
168.9961842924514
 20
-142.3979344499654
 30
0.0
 10
168.9961842924514
 20
-142.3979344499654
 30
0.0
 10
170.9381340288375
 20
-142.3979344499654
 30
0.0
 10
170.9381340288375
 20
-142.3979344499654
 30
0.0
 10
170.9381340288375
 20
-142.3979344499654
 30
0.0
 10
171.8968428228001
 20
-45.29445648901054
 30
0.0
 10
171.8968428228001
 20
-45.29445648901054
 30
0.0
 10
174.8678184367772
 20
-44.07964215549324
 30
0.0
 10
176.8180611745045
 20
-42.05271280459135
 30
0.0
 10
178.5703755113745
 20
-39.14738749021527
 30
0.0
 10
181.3638556707648
 20
-34.57460132418815
 30
0.0
 10
181.7920646374151
 20
-32.21040223048129
 30
0.0
 10
181.3638556707648
 20
-29.62730574012672
 30
0.0
  0
HATCH
  5
8C
330
70
100
AcDbEntity
  8
Layer 1
 62
     7
440
 33554687
100
AcDbHatch
 10
0.0
 20
0.0
 30
0.0
210
0.0
220
0.0
230
1.0
  2
SOLID
 70
     1
 71
     1
 91
       19
 92
        1
 93
        1
 72
     4
 94
        3
 73
     0
 74
     0
 95
       17
 96
       13
 40
0.0
 40
0.0
 40
0.0
 40
0.0
 40
1.0
 40
1.0
 40
1.0
 40
2.0
 40
2.0
 40
2.0
 40
3.0
 40
3.0
 40
3.0
 40
4.0
 40
4.0
 40
4.0
 40
4.0
 10
169.176296929969
 20
-42.34958963971737
 10
167.0051702591488
 20
-43.05014329303641
 10
168.009695520606
 20
-39.61523258875713
 10
169.0537623169801
 20
-37.9332038031879
 10
170.4937805120453
 20
-35.61327609307338
 10
173.9748230070615
 20
-31.86928554408849
 10
176.3906089836423
 20
-30.73251371369746
 10
177.4234502724955
 20
-30.24650599624649
 10
178.0490831228132
 20
-30.13368333920139
 10
178.0490831228132
 20
-31.33106029727301
 10
178.0490831228132
 20
-35.53690480314496
 10
173.5880790471227
 20
-40.92603131803882
 10
169.176296929969
 20
-42.34958963971737
 97
        1
330
79
 92
        1
 93
        1
 72
     4
 94
        3
 73
     0
 74
     0
 95
       71
 96
       67
 40
0.0
 40
0.0
 40
0.0
 40
0.0
 40
1.0
 40
1.0
 40
1.0
 40
2.0
 40
2.0
 40
2.0
 40
3.0
 40
3.0
 40
3.0
 40
4.0
 40
4.0
 40
4.0
 40
5.0
 40
5.0
 40
5.0
 40
6.0
 40
6.0
 40
6.0
 40
7.0
 40
7.0
 40
7.0
 40
8.0
 40
8.0
 40
8.0
 40
9.0
 40
9.0
 40
9.0
 40
10.0
 40
10.0
 40
10.0
 40
11.0
 40
11.0
 40
11.0
 40
12.0
 40
12.0
 40
12.0
 40
13.0
 40
13.0
 40
13.0
 40
14.0
 40
14.0
 40
14.0
 40
15.0
 40
15.0
 40
15.0
 40
16.0
 40
16.0
 40
16.0
 40
17.0
 40
17.0
 40
17.0
 40
18.0
 40
18.0
 40
18.0
 40
19.0
 40
19.0
 40
19.0
 40
20.0
 40
20.0
 40
20.0
 40
21.0
 40
21.0
 40
21.0
 40
22.0
 40
22.0
 40
22.0
 40
22.0
 10
131.7062465379015
 20
-53.35162757645079
 10
116.3709419720095
 20
-51.5960969424829
 10
101.8662303656558
 20
-46.30588732953113
 10
87.08863802311718
 20
-42.06015443317205
 10
87.98834983795044
 20
-39.11714799102469
 10
89.38277229179488
 20
-33.98857307343763
 10
90.18476543301574
 20
-31.82596013023121
 10
90.5534413710183
 20
-32.43292584444677
 10
90.98335308319134
 20
-32.99312912143587
 10
91.56591277824775
 20
-33.52820113580172
 10
93.0706983678265
 20
-34.98571977096184
 10
94.54436155312816
 20
-36.74538113943902
 10
97.92150503893202
 20
-36.46073884621687
 10
99.09800759818683
 20
-36.35428571871994
 10
101.2594853777115
 20
-34.36245184498169
 10
102.7883616632052
 20
-32.40940273037344
 10
102.8298897345656
 20
-32.52780660885437
 10
102.8735620039923
 20
-32.62959295232591
 10
102.9157837864918
 20
-32.70312633304982
 10
104.235695357553
 20
-34.95898035978966
 10
107.4530014904878
 20
-41.10557637371676
 10
111.5061349488281
 20
-42.0683213052168
 10
113.1334236190725
 20
-42.45487607120796
 10
116.9093248804471
 20
-41.23571027691039
 10
118.0453714673744
 20
-40.84363735413197
 10
118.3521809847168
 20
-40.74036899140863
 10
118.6404494952552
 20
-40.58333801542073
 10
118.9104292575866
 20
-40.38799526517035
 10
119.1087991109888
 20
-41.884582450381
 10
120.5318844477995
 20
-43.9563507667153
 10
121.6182045589977
 20
-44.0231046976721
 10
124.8941608154944
 20
-44.22447012190092
 10
131.8600612167909
 20
-43.49903746455519
 10
134.1430645749212
 20
-42.82355200921084
 10
134.4065802107309
 20
-42.74557257073314
 10
134.658964935994
 20
-42.64498445559224
 10
134.894322206029
 20
-42.52888243679907
 10
135.4353538297244
 20
-44.66674250527629
 10
138.0516223254488
 20
-45.84639829698137
 10
140.1700269497124
 20
-46.04243475837058
 10
143.6385511119032
 20
-46.36337075708668
 10
146.6531043983322
 20
-45.03828788480828
 10
148.3355115717951
 20
-43.66158659733003
 10
148.9719915417381
 20
-43.14073566131198
 10
149.492558686836
 20
-42.57249164157689
 10
149.8533515437143
 20
-42.05441555011412
 10
149.8533830760389
 20
-42.13286797345934
 10
149.8527208972247
 20
-42.21113120285722
 10
149.8538560609068
 20
-42.28989894944692
 10
149.8839694308002
 20
-44.43851154057717
 10
152.0024686520361
 20
-46.72734837873988
 10
153.6910246287771
 20
-46.62906212328674
 10
155.1806116379487
 20
-46.5423482309239
 10
156.5181182460783
 20
-46.09657575952949
 10
157.7668928930775
 20
-45.45230730543538
 10
157.735265971608
 20
-45.53258860360116
 10
157.699760574227
 20
-45.61290143409155
 10
157.6644759031158
 20
-45.69324579690621
 10
157.4948004650063
 20
-46.00793839537227
 10
157.322350182339
 20
-46.33016721939315
 10
157.1293723564259
 20
-46.63804883576811
 10
156.9427009954115
 20
-46.95822805869649
 10
156.7300785313391
 20
-47.27487566128122
 10
156.500491676685
 20
-47.58635196264874
 10
150.7213733724298
 20
-54.55682455099679
 10
140.012743715128
 20
-54.39676647185704
 10
131.7062465379015
 20
-53.35162757645079
 97
        1
330
7A
 92
        1
 93
        1
 72
     4
 94
        3
 73
     0
 74
     0
 95
       35
 96
       31
 40
0.0
 40
0.0
 40
0.0
 40
0.0
 40
1.0
 40
1.0
 40
1.0
 40
2.0
 40
2.0
 40
2.0
 40
3.0
 40
3.0
 40
3.0
 40
4.0
 40
4.0
 40
4.0
 40
5.0
 40
5.0
 40
5.0
 40
6.0
 40
6.0
 40
6.0
 40
7.0
 40
7.0
 40
7.0
 40
8.0
 40
8.0
 40
8.0
 40
9.0
 40
9.0
 40
9.0
 40
10.0
 40
10.0
 40
10.0
 40
10.0
 10
67.81907686223366
 20
-38.23805831641168
 10
68.79866005501407
 20
-37.62425008777977
 10
69.55928278649693
 20
-36.46360828774631
 10
68.73874863847231
 20
-35.35439570896408
 10
68.10245786247563
 20
-34.49425696137347
 10
65.36557822555535
 20
-37.15974741563553
 10
64.1541063184347
 20
-35.33065186861945
 10
62.37845806143837
 20
-32.64977364000325
 10
65.89112747792405
 20
-28.22522093142966
 10
67.09676590501328
 20
-25.5836319791356
 10
67.38162892450609
 20
-24.94853943146923
 10
68.14401746616062
 20
-23.55339173416167
 10
69.03203078860579
 20
-22.05658382268037
 10
69.98525295810804
 20
-23.07596080897377
 10
71.3042500917591
 20
-24.27179268314502
 10
71.3042500917591
 20
-24.27179268314502
 10
69.49889838508766
 20
-26.67099265704137
 10
69.4993398376309
 20
-28.42343312320916
 10
69.43034711163457
 20
-29.86086566766577
 10
69.29765909015663
 20
-32.62587213803557
 10
72.3775473529398
 20
-34.18681679754111
 10
74.80238310665185
 20
-34.60660663355137
 10
78.2317125894953
 20
-35.2002657068299
 10
84.38723225125521
 20
-33.68116444192987
 10
86.15401992506763
 20
-32.6237279399702
 10
85.11934976139357
 20
-35.69677368833737
 10
84.29153164641034
 20
-38.70710164328384
 10
83.9079409189218
 20
-41.16860949038353
 10
78.64954742138593
 20
-39.74700617282399
 10
73.25711001242034
 20
-38.78038276541153
 10
67.81907686223366
 20
-38.23805831641168
 97
        1
330
7B
 92
        1
 93
        1
 72
     4
 94
        3
 73
     0
 74
     0
 95
      101
 96
       97
 40
0.0
 40
0.0
 40
0.0
 40
0.0
 40
1.0
 40
1.0
 40
1.0
 40
2.0
 40
2.0
 40
2.0
 40
3.0
 40
3.0
 40
3.0
 40
4.0
 40
4.0
 40
4.0
 40
5.0
 40
5.0
 40
5.0
 40
6.0
 40
6.0
 40
6.0
 40
7.0
 40
7.0
 40
7.0
 40
8.0
 40
8.0
 40
8.0
 40
9.0
 40
9.0
 40
9.0
 40
10.0
 40
10.0
 40
10.0
 40
11.0
 40
11.0
 40
11.0
 40
12.0
 40
12.0
 40
12.0
 40
13.0
 40
13.0
 40
13.0
 40
14.0
 40
14.0
 40
14.0
 40
15.0
 40
15.0
 40
15.0
 40
16.0
 40
16.0
 40
16.0
 40
17.0
 40
17.0
 40
17.0
 40
18.0
 40
18.0
 40
18.0
 40
19.0
 40
19.0
 40
19.0
 40
20.0
 40
20.0
 40
20.0
 40
21.0
 40
21.0
 40
21.0
 40
22.0
 40
22.0
 40
22.0
 40
23.0
 40
23.0
 40
23.0
 40
24.0
 40
24.0
 40
24.0
 40
25.0
 40
25.0
 40
25.0
 40
26.0
 40
26.0
 40
26.0
 40
27.0
 40
27.0
 40
27.0
 40
28.0
 40
28.0
 40
28.0
 40
29.0
 40
29.0
 40
29.0
 40
30.0
 40
30.0
 40
30.0
 40
31.0
 40
31.0
 40
31.0
 40
32.0
 40
32.0
 40
32.0
 40
32.0
 10
55.46773922800937
 20
-37.72070746841234
 10
57.88951634624497
 20
-35.81010086257491
 10
58.70254580103936
 20
-32.0386141266298
 10
59.36724720140672
 20
-29.98743641819082
 10
60.9587782156729
 20
-25.06419999771916
 10
62.14026288219887
 20
-22.6921493552133
 10
62.78629714646465
 20
-20.70059927239556
 10
63.39165471213128
 20
-18.83448477642145
 10
60.21972359414533
 20
-12.06440011024288
 10
58.91437995700071
 20
-16.71674233097267
 10
57.93567966930645
 20
-20.20491113132504
 10
57.0214945175298
 20
-23.87599894607625
 10
55.50876278217793
 20
-27.79732728802449
 10
54.67372376488564
 20
-27.38384391691381
 10
52.03140956912751
 20
-28.60468092440986
 10
52.12830840230267
 20
-28.34980514551206
 10
53.29557199048085
 20
-24.89966432850135
 10
54.16945883155205
 20
-23.75917168381997
 10
56.84037284562721
 20
-18.27510133986993
 10
57.63788839676998
 20
-16.62961851839121
 10
55.03732299864418
 20
-13.16506742908633
 10
53.40202511797778
 20
-12.87676738622274
 10
49.42620891930123
 20
-12.17583534501001
 10
46.35644253268085
 20
-13.29554818784938
 10
44.41991635610849
 20
-14.27065379055109
 10
43.48860915213064
 20
-14.73960252044942
 10
42.0201172680465
 20
-15.52564030547572
 10
40.90718387497393
 20
-16.26529404116924
 10
41.68023034230831
 20
-14.70359260587535
 10
42.28063733302871
 20
-13.54266701492105
 10
42.52832374194205
 20
-13.14826070012993
 10
42.90135114072488
 20
-12.5541601743088
 10
42.87826947919413
 20
-11.50258868470484
 10
42.64906101243536
 20
-10.49573003123582
 10
43.77757137380878
 20
-11.29538978044428
 10
45.04917542374248
 20
-11.79710059549356
 10
46.43130027103352
 20
-11.63064145448137
 10
48.05745377759645
 20
-11.43482571936345
 10
51.83442713800389
 20
-9.049783759165682
 10
52.96946469054723
 20
-8.350239140230922
 10
53.01275857207991
 20
-8.32397271392594
 10
53.05311994743426
 20
-8.290548449960144
 10
53.0957201178278
 20
-8.262484681159529
 10
53.22355216133302
 20
-9.52380919330772
 10
54.11449798995588
 20
-10.81423804096572
 10
55.1016804729397
 20
-10.67357234139099
 10
56.56604162251519
 20
-10.46492295020324
 10
59.15468780198162
 20
-10.05251167812573
 10
61.77319509274525
 20
-9.593022645575331
 10
61.72923903239836
 20
-9.877223486254562
 10
61.71599545611054
 20
-10.17687516593619
 10
61.74405922491115
 20
-10.48901364611825
 10
61.94198762577014
 20
-12.69053747775184
 10
63.23285792597139
 20
-13.67658479705392
 10
65.33262694645772
 20
-13.70928381755596
 10
66.78289314698385
 20
-13.73186096189489
 10
67.0930450907223
 20
-11.63464605969222
 10
66.69479183234304
 20
-10.35128045272185
 10
66.50446272168778
 20
-9.737976741282082
 10
66.34405778697864
 20
-9.210756275715544
 10
66.16066578771192
 20
-8.773276805663684
 10
67.65223933332745
 20
-8.471701654187661
 10
68.88638298176086
 20
-8.1886675095151
 10
69.5535754357633
 20
-7.968193496642112
 10
69.88387653485448
 20
-7.859060121562428
 10
70.19383928464655
 20
-7.713979896558206
 10
70.47722028488853
 20
-7.550642455671359
 10
71.30087613303786
 20
-8.894203270104323
 10
72.45634663185476
 20
-9.867511530310077
 10
73.20514474165141
 20
-9.973302478992474
 10
74.40258476437223
 20
-10.14244186758709
 10
76.15247111225507
 20
-9.268807285111806
 10
78.14846725282658
 20
-7.670149965509743
 10
77.5949172963068
 20
-8.743825614585102
 10
76.98117213232412
 20
-9.77833811663643
 10
76.27494266059639
 20
-10.80253954857827
 10
74.18753431131204
 20
-13.84830983625683
 10
71.27145647428356
 20
-12.89524532837762
 10
69.61298233511325
 20
-10.88701464590127
 10
68.93796986463545
 20
-10.06994905357141
 10
68.20061798863034
 20
-9.988847914969024
 10
68.01684760146994
 20
-10.52146040802406
 10
67.71104711851176
 20
-11.35072900993383
 10
67.96677427017077
 20
-11.88914345069632
 10
68.90675286338455
 20
-12.97596807908632
 10
68.85598582094722
 20
-13.04874468402187
 10
68.80518724618432
 20
-13.12202580614988
 10
68.75492472093879
 20
-13.2060909832549
 10
65.78637709594925
 20
-18.17000410232603
 10
60.96707121701545
 20
-28.58008571130368
 10
60.01249315756016
 20
-34.67487411608393
 10
59.92902709462015
 20
-35.20764427076202
 10
59.69726450957737
 20
-36.87778536999581
 10
60.06029616149552
 20
-37.74861357559088
 10
58.52883422539317
 20
-37.70730623050148
 10
56.99746688626433
 20
-37.69831951802011
 10
55.46773922800937
 20
-37.72070746841234
 97
        1
330
7C
 92
        1
 93
        1
 72
     4
 94
        3
 73
     0
 74
     0
 95
       23
 96
       19
 40
0.0
 40
0.0
 40
0.0
 40
0.0
 40
1.0
 40
1.0
 40
1.0
 40
2.0
 40
2.0
 40
2.0
 40
3.0
 40
3.0
 40
3.0
 40
4.0
 40
4.0
 40
4.0
 40
5.0
 40
5.0
 40
5.0
 40
6.0
 40
6.0
 40
6.0
 40
6.0
 10
16.93180167101623
 20
-44.27558401990863
 10
15.7312399481707
 20
-44.35832483938521
 10
15.15653180191393
 20
-44.14809883197313
 10
14.77082840868368
 20
-43.55339919198605
 10
13.8853692045225
 20
-42.09647967099156
 10
15.03421791519533
 20
-39.81830075850839
 10
16.84861939899705
 20
-39.57398830831662
 10
19.38444893493268
 20
-39.11818855773292
 10
22.0877151139408
 20
-40.71050788011143
 10
24.22339945202771
 20
-42.1148630161723
 10
24.37762405113571
 20
-42.21296007767779
 10
24.53711454843442
 20
-42.30241728227194
 10
24.69275810214436
 20
-42.39824401641427
 10
23.31842173900406
 20
-42.78747902998754
 10
21.95490096316505
 20
-43.17967808206407
 10
20.60910135369322
 20
-43.54472780274948
 10
19.34386683330671
 20
-43.87695237363503
 10
18.07201052477678
 20
-44.18076632015025
 10
16.93180167101623
 20
-44.27558401990863
 97
        1
330
7D
 92
        1
 93
        1
 72
     4
 94
        3
 73
     0
 74
     0
 95
       17
 96
       13
 40
0.0
 40
0.0
 40
0.0
 40
0.0
 40
1.0
 40
1.0
 40
1.0
 40
2.0
 40
2.0
 40
2.0
 40
3.0
 40
3.0
 40
3.0
 40
4.0
 40
4.0
 40
4.0
 40
4.0
 10
48.61261188266581
 20
-24.90909249352533
 10
48.55134457617102
 20
-25.03597856729582
 10
48.49007726967591
 20
-25.16346375523131
 10
48.45892333307423
 20
-25.28826869558502
 10
45.94169786859032
 20
-26.73014729779541
 10
41.87412260563152
 20
-29.1709699400266
 10
41.70476249076592
 20
-28.07509553450602
 10
41.50781159196626
 20
-26.8008743016391
 10
43.56356148745681
 20
-24.88869107957669
 10
44.95930829893032
 20
-24.10918048572128
 10
45.96843727976251
 20
-23.54557171768696
 10
47.5377695375841
 20
-24.37096184368334
 10
48.61261188266581
 20
-24.90909249352533
 97
        1
330
7E
 92
        1
 93
        1
 72
     4
 94
        3
 73
     0
 74
     0
 95
       74
 96
       70
 40
0.0
 40
0.0
 40
0.0
 40
0.0
 40
1.0
 40
1.0
 40
1.0
 40
2.0
 40
2.0
 40
2.0
 40
3.0
 40
3.0
 40
3.0
 40
4.0
 40
4.0
 40
4.0
 40
5.0
 40
5.0
 40
5.0
 40
6.0
 40
6.0
 40
6.0
 40
7.0
 40
7.0
 40
7.0
 40
8.0
 40
8.0
 40
8.0
 40
9.0
 40
9.0
 40
9.0
 40
10.0
 40
10.0
 40
10.0
 40
11.0
 40
11.0
 40
11.0
 40
12.0
 40
12.0
 40
12.0
 40
13.0
 40
13.0
 40
13.0
 40
14.0
 40
14.0
 40
14.0
 40
15.0
 40
15.0
 40
15.0
 40
16.0
 40
16.0
 40
16.0
 40
17.0
 40
17.0
 40
17.0
 40
18.0
 40
18.0
 40
18.0
 40
19.0
 40
19.0
 40
19.0
 40
20.0
 40
20.0
 40
20.0
 40
21.0
 40
21.0
 40
21.0
 40
22.0
 40
22.0
 40
22.0
 40
23.0
 40
23.0
 40
23.0
 40
23.0
 10
22.71407320772105
 20
-37.95026279073989
 10
22.72958711137331
 20
-34.69849182713141
 10
26.45402761917079
 20
-25.10084055878316
 10
28.23396427229848
 20
-21.73145402480608
 10
28.20385090240505
 20
-25.24138012906011
 10
27.65455780969172
 20
-32.77328575505249
 10
29.61612065191413
 20
-34.04634029191337
 10
31.45060822641904
 20
-35.23693780021819
 10
33.41904511538144
 20
-34.62016553308431
 10
33.88323246428087
 20
-32.05018648971946
 10
34.1380451785301
 20
-30.63955642108457
 10
37.22717241239055
 20
-23.87659806024125
 10
39.66799505462111
 20
-18.8064525399448
 10
40.47859652042993
 20
-18.59020385855428
 10
42.28653387770935
 20
-17.94710210046685
 10
46.09459811006924
 20
-16.64018184709756
 10
49.10552517918072
 20
-15.60686757337687
 10
53.49337426204173
 20
-16.0634556320729
 10
52.57225199887621
 20
-17.80798148479183
 10
51.9896923038198
 20
-18.92895562061041
 10
51.34485626788499
 20
-20.02728954744085
 10
50.69995716730127
 20
-21.07100948824549
 10
49.87125614723222
 20
-20.58862798811233
 10
48.95010235174241
 20
-20.15363957169492
 10
48.06013402517791
 20
-19.73110642345397
 10
45.60420739951405
 20
-18.56948712136053
 10
41.91886697409073
 20
-20.69000441136524
 10
40.38488245202901
 20
-23.86887264074005
 10
39.12595439654209
 20
-26.47769950788381
 10
38.94344530236122
 20
-27.41509245048867
 10
38.8811689614828
 20
-29.20616001416343
 10
38.81996471963659
 20
-30.96686194934851
 10
40.66110561461017
 20
-32.49498145905422
 10
42.19590997710883
 20
-32.26807485198385
 10
44.28432736077714
 20
-31.95931033052337
 10
46.43284535493388
 20
-30.84568322631229
 10
48.12140133167303
 20
-29.79600367617779
 10
48.70506465808688
 20
-31.1325643145733
 10
52.90513874857662
 20
-31.999104124037
 10
54.19496848206899
 20
-30.83956595536003
 10
54.22028893863892
 20
-30.80935798849341
 10
54.24046962631593
 20
-30.78312309451239
 10
54.26506483942276
 20
-30.7534827094868
 10
54.05619472196372
 20
-31.210543753051
 10
53.84120733355242
 20
-31.66974899467992
 10
53.61187273749617
 20
-32.13374714963299
 10
51.83666593304277
 20
-35.71096323436055
 10
49.47625071827546
 20
-36.19911514987721
 10
47.67509281076251
 20
-34.67455879283945
 10
46.64099022892918
 20
-33.79565831217345
 10
45.43601398065447
 20
-35.48052500694718
 10
46.92411897057556
 20
-36.60881464204865
 10
47.37755379682228
 20
-36.95220165580556
 10
48.21978218409935
 20
-37.49935055045288
 10
49.18829753098192
 20
-37.97041194609262
 10
42.17036879426792
 20
-38.43412631012486
 10
35.18239576582435
 20
-39.58297502079768
 10
28.38787354816136
 20
-41.3879483395751
 10
28.29564149901191
 20
-41.41172371224499
 10
28.20404009635206
 20
-41.43770634762914
 10
28.1118711118515
 20
-41.46173397889461
 10
27.28559808076865
 20
-40.97490642100734
 10
26.47020370163727
 20
-40.47086221394505
 10
25.67874235679722
 20
-39.92774945683288
 10
24.73286721890279
 20
-39.25166488732255
 10
23.74256303579427
 20
-38.59418438926491
 10
22.70341528204152
 20
-38.04508049049859
 10
22.70537028616051
 20
-38.01130937096371
 10
22.71391554609865
 20
-37.9863673022878
 10
22.71407320772105
 20
-37.95026279073989
 97
        1
330
7F
 92
        1
 93
        1
 72
     4
 94
        3
 73
     0
 74
     0
 95
       23
 96
       19
 40
0.0
 40
0.0
 40
0.0
 40
0.0
 40
1.0
 40
1.0
 40
1.0
 40
2.0
 40
2.0
 40
2.0
 40
3.0
 40
3.0
 40
3.0
 40
4.0
 40
4.0
 40
4.0
 40
5.0
 40
5.0
 40
5.0
 40
6.0
 40
6.0
 40
6.0
 40
6.0
 10
64.4576995386783
 20
-1.918370186591744
 10
66.47929992673994
 20
-0.5487006074761989
 10
70.31580631579512
 20
1.413209090315627
 10
71.45897920805859
 20
1.950267641124444
 10
71.40657248474738
 20
1.868504323707515
 10
71.35432342305794
 20
1.787024797211102
 10
71.30160137650097
 20
1.704883091899512
 10
70.38047911333577
 20
0.2282243357709321
 10
69.75954457936862
 20
-1.82364708380687
 10
69.52059262434075
 20
-3.845531262789347
 10
69.47058235769081
 20
-4.268695057520224
 10
69.48975401098387
 20
-4.692647160363428
 10
69.55303938624656
 20
-5.110450459930087
 10
66.73054948832121
 20
-5.16131209934157
 10
62.2564910302895
 20
-5.899609945081412
 10
59.54568862572751
 20
-6.027284326964235
 10
60.8043328902936
 20
-4.460884575320977
 10
62.52432659455525
 20
-3.228254478463329
 10
64.4576995386783
 20
-1.918370186591744
 97
        1
330
80
 92
        1
 93
        1
 72
     4
 94
        3
 73
     0
 74
     0
 95
       17
 96
       13
 40
0.0
 40
0.0
 40
0.0
 40
0.0
 40
1.0
 40
1.0
 40
1.0
 40
2.0
 40
2.0
 40
2.0
 40
3.0
 40
3.0
 40
3.0
 40
4.0
 40
4.0
 40
4.0
 40
4.0
 10
76.52212455231728
 20
-23.67576868552886
 10
77.22822789474753
 20
-23.28252906674441
 10
77.93981786163948
 20
-22.95698934865213
 10
78.60937523997892
 20
-22.71548327533994
 10
79.37393951202373
 20
-22.43973309762599
 10
83.57480191062581
 20
-21.45778498050859
 10
83.33758423344532
 20
-22.65926114076457
 10
83.11770933473765
 20
-23.77317203589583
 10
81.77080609390804
 20
-24.75458410349713
 10
80.66663868704555
 20
-24.96263438051891
 10
79.40853047199556
 20
-25.1996628637524
 10
77.93439430182572
 20
-24.57784542469942
 10
76.52212455231728
 20
-23.67576868552886
 97
        1
330
81
 92
        1
 93
        1
 72
     4
 94
        3
 73
     0
 74
     0
 95
       20
 96
       16
 40
0.0
 40
0.0
 40
0.0
 40
0.0
 40
1.0
 40
1.0
 40
1.0
 40
2.0
 40
2.0
 40
2.0
 40
3.0
 40
3.0
 40
3.0
 40
4.0
 40
4.0
 40
4.0
 40
5.0
 40
5.0
 40
5.0
 40
5.0
 10
100.5924190530071
 20
-27.65669312077404
 10
99.64011132091538
 20
-29.48064889889721
 10
97.94386145699901
 20
-30.83660191685773
 10
96.38657454713492
 20
-31.48358215085791
 10
94.32376141095737
 20
-32.34050460135031
 10
93.59306285542094
 20
-31.51571358951925
 10
91.53583094067892
 20
-29.00845233957573
 10
91.90450687868116
 20
-28.38852683999221
 10
92.29815641768455
 20
-27.42969191673049
 10
92.70202242982426
 20
-27.0721784215996
 10
93.06231076951043
 20
-26.75326049165076
 10
93.96066669439035
 20
-26.60266210985959
 10
94.97424173297693
 20
-26.53893528205399
 10
97.24642950380564
 20
-26.43904087805191
 10
101.1760508470957
 20
-26.50954715562431
 10
100.5924190530071
 20
-27.65669312077404
 97
        1
330
82
 92
        1
 93
        1
 72
     4
 94
        3
 73
     0
 74
     0
 95
      254
 96
      250
 40
0.0
 40
0.0
 40
0.0
 40
0.0
 40
1.0
 40
1.0
 40
1.0
 40
2.0
 40
2.0
 40
2.0
 40
3.0
 40
3.0
 40
3.0
 40
4.0
 40
4.0
 40
4.0
 40
5.0
 40
5.0
 40
5.0
 40
6.0
 40
6.0
 40
6.0
 40
7.0
 40
7.0
 40
7.0
 40
8.0
 40
8.0
 40
8.0
 40
9.0
 40
9.0
 40
9.0
 40
10.0
 40
10.0
 40
10.0
 40
11.0
 40
11.0
 40
11.0
 40
12.0
 40
12.0
 40
12.0
 40
13.0
 40
13.0
 40
13.0
 40
14.0
 40
14.0
 40
14.0
 40
15.0
 40
15.0
 40
15.0
 40
16.0
 40
16.0
 40
16.0
 40
17.0
 40
17.0
 40
17.0
 40
18.0
 40
18.0
 40
18.0
 40
19.0
 40
19.0
 40
19.0
 40
20.0
 40
20.0
 40
20.0
 40
21.0
 40
21.0
 40
21.0
 40
22.0
 40
22.0
 40
22.0
 40
23.0
 40
23.0
 40
23.0
 40
24.0
 40
24.0
 40
24.0
 40
25.0
 40
25.0
 40
25.0
 40
26.0
 40
26.0
 40
26.0
 40
27.0
 40
27.0
 40
27.0
 40
28.0
 40
28.0
 40
28.0
 40
29.0
 40
29.0
 40
29.0
 40
30.0
 40
30.0
 40
30.0
 40
31.0
 40
31.0
 40
31.0
 40
32.0
 40
32.0
 40
32.0
 40
33.0
 40
33.0
 40
33.0
 40
34.0
 40
34.0
 40
34.0
 40
35.0
 40
35.0
 40
35.0
 40
36.0
 40
36.0
 40
36.0
 40
37.0
 40
37.0
 40
37.0
 40
38.0
 40
38.0
 40
38.0
 40
39.0
 40
39.0
 40
39.0
 40
40.0
 40
40.0
 40
40.0
 40
41.0
 40
41.0
 40
41.0
 40
42.0
 40
42.0
 40
42.0
 40
43.0
 40
43.0
 40
43.0
 40
44.0
 40
44.0
 40
44.0
 40
45.0
 40
45.0
 40
45.0
 40
46.0
 40
46.0
 40
46.0
 40
47.0
 40
47.0
 40
47.0
 40
48.0
 40
48.0
 40
48.0
 40
49.0
 40
49.0
 40
49.0
 40
50.0
 40
50.0
 40
50.0
 40
51.0
 40
51.0
 40
51.0
 40
52.0
 40
52.0
 40
52.0
 40
53.0
 40
53.0
 40
53.0
 40
54.0
 40
54.0
 40
54.0
 40
55.0
 40
55.0
 40
55.0
 40
56.0
 40
56.0
 40
56.0
 40
57.0
 40
57.0
 40
57.0
 40
58.0
 40
58.0
 40
58.0
 40
59.0
 40
59.0
 40
59.0
 40
60.0
 40
60.0
 40
60.0
 40
61.0
 40
61.0
 40
61.0
 40
62.0
 40
62.0
 40
62.0
 40
63.0
 40
63.0
 40
63.0
 40
64.0
 40
64.0
 40
64.0
 40
65.0
 40
65.0
 40
65.0
 40
66.0
 40
66.0
 40
66.0
 40
67.0
 40
67.0
 40
67.0
 40
68.0
 40
68.0
 40
68.0
 40
69.0
 40
69.0
 40
69.0
 40
70.0
 40
70.0
 40
70.0
 40
71.0
 40
71.0
 40
71.0
 40
72.0
 40
72.0
 40
72.0
 40
73.0
 40
73.0
 40
73.0
 40
74.0
 40
74.0
 40
74.0
 40
75.0
 40
75.0
 40
75.0
 40
76.0
 40
76.0
 40
76.0
 40
77.0
 40
77.0
 40
77.0
 40
78.0
 40
78.0
 40
78.0
 40
79.0
 40
79.0
 40
79.0
 40
80.0
 40
80.0
 40
80.0
 40
81.0
 40
81.0
 40
81.0
 40
82.0
 40
82.0
 40
82.0
 40
83.0
 40
83.0
 40
83.0
 40
83.0
 10
82.04696619184062
 20
-10.08044931762855
 10
82.59657460779875
 20
-8.866801680117601
 10
83.10755592624992
 20
-7.784580771104105
 10
83.57874345118778
 20
-6.809664362348767
 10
84.82676132239861
 20
-9.006206086712484
 10
84.99706740699958
 20
-12.20528653608924
 10
88.96884746814098
 20
-13.06451084626972
 10
90.59613613838566
 20
-13.41653771693892
 10
94.37203739975993
 20
-12.17580381268605
 10
95.50814705133644
 20
-11.79095179221701
 10
97.87171549855306
 20
-11.01043216397765
 10
99.19169013426314
 20
-7.174556421412404
 10
98.700479583271
 20
-5.525510447265743
 10
97.84169672563344
 20
-2.625230304809076
 10
94.21841191481759
 20
-2.125789817123602
 10
91.24112983594288
 20
-0.7908688596026013
 10
91.24112983594288
 20
-0.2077731150300972
 10
94.4907881338106
 20
0.456707559065957
 10
95.20080148447789
 20
0.3136138705050194
 10
96.72333977274774
 20
0.0067412885139975
 10
101.1995108965208
 20
-1.578167937608753
 10
102.8564084194665
 20
-3.349464733824483
 10
101.5365914453788
 20
-5.590719294322497
 10
99.96514652181616
 20
-8.147801616968939
 10
99.31734644737872
 20
-10.47990080433908
 10
98.67749251871378
 20
-12.78352630268966
 10
101.8070757249017
 20
-16.06487458667547
 10
103.8606814223269
 20
-15.92506025986132
 10
105.7923516209275
 20
-15.79353893439068
 10
109.9388838244234
 20
-13.39058661387874
 10
110.5537010874382
 20
-11.90153565422324
 10
111.0749934759998
 20
-10.6370579096251
 10
109.0489154978595
 20
-11.25471308184513
 10
108.4652837037702
 20
-11.39790136737925
 10
106.9916835831175
 20
-11.79874027636743
 10
104.2594391978983
 20
-11.53494084963747
 10
103.7994141158321
 20
-11.42823546354399
 10
103.6457255662405
 20
-10.53325349738534
 10
104.8129891544187
 20
-8.317287861132653
 10
105.4880016248959
 20
-7.337074021862635
 10
105.8867594004669
 20
-6.784312373454548
 10
106.8390671325587
 20
-5.438670425604471
 10
107.912805846283
 20
-3.965007240302802
 10
109.1714501108494
 20
-3.945961716307849
 10
113.0794718118606
 20
-4.871466972578248
 10
113.955786641918
 20
-5.024178020110167
 10
114.2394199007559
 20
-5.073589172594786
 10
114.5202783150381
 20
-5.104143995031463
 10
114.7909202561838
 20
-5.117198377372272
 10
113.0405924557574
 20
-8.029996852653326
 10
111.542460186647
 20
-11.08689805087926
 10
110.8058650864296
 20
-14.02328270488319
 10
110.1297805169196
 20
-16.69725535443416
 10
113.3555057804951
 20
-20.50636015350294
 10
114.029288490317
 20
-17.79757581770853
 10
114.3987212041069
 20
-16.31249793093928
 10
114.826835573784
 20
-15.05170946830687
 10
115.2879327548834
 20
-13.89050008643238
 10
115.9016779188657
 20
-14.81824413774165
 10
116.700265569041
 20
-15.72136144362013
 10
117.2527434265283
 20
-16.2647579916525
 10
119.0395541263963
 20
-18.0251130712685
 10
125.6889015220812
 20
-21.09923091866915
 10
128.1368504696483
 20
-21.58725670488769
 10
128.1721982054078
 20
-21.59769390429561
 10
128.207199085598
 20
-21.60630222888296
 10
128.2416639162717
 20
-21.61065368966323
 10
128.2419477071922
 20
-21.61071675431245
 10
128.2422945627616
 20
-21.61081135128563
 10
128.2425783536821
 20
-21.61087441593485
 10
128.2433351294699
 20
-21.61100054523297
 10
128.2435873880661
 20
-21.61068522198784
 10
128.2443441638538
 20
-21.61081135128563
 10
128.5711136426019
 20
-21.65066820944849
 10
128.8543054488969
 20
-21.41307214437397
 10
129.012408523918
 20
-20.77542547842361
 10
129.6188381886168
 20
-18.32965226124715
 10
130.9313396634219
 20
-15.2947606255191
 10
132.2990542384188
 20
-13.04177604030839
 10
132.8351983518175
 20
-13.52548189807063
 10
133.3930051721447
 20
-14.02602601711419
 10
133.3706487540771
 20
-14.07367135942682
 10
132.6068412578203
 20
-15.70263124286998
 10
132.1363159116966
 20
-17.52166797837185
 10
132.0427910372427
 20
-19.47115394031215
 10
131.9100399511165
 20
-22.23839920572178
 10
134.9899912785486
 20
-23.72454919152387
 10
137.4158360666439
 20
-23.9312751109169
 10
140.8843286965114
 20
-24.22685912073878
 10
147.0300418053524
 20
-21.83604674515784
 10
148.8906066122159
 20
-20.70302726138176
 10
148.8920886314661
 20
-20.70211282397163
 10
148.893318392122
 20
-20.70104072493879
 10
148.8948004113734
 20
-20.70012628752835
 10
149.4093133501682
 20
-22.5085681619999
 10
151.1452624106241
 20
-24.14105966578639
 10
152.5774921215392
 20
-24.0582557816609
 10
154.0822777111183
 20
-23.97128963070151
 10
155.4333432187808
 20
-23.52037739041451
 10
156.6918928863741
 20
-22.86923488958074
 10
156.4769370302871
 20
-23.25998345473009
 10
156.2620442388493
 20
-23.68015167863373
 10
156.0159029138372
 20
-24.07222460141215
 10
153.9285576292018
 20
-27.64739108504786
 10
151.0125428568225
 20
-27.25011532872795
 10
149.3540687176516
 20
-25.48026901943876
 10
148.6790562471741
 20
-24.76025992190615
 10
147.9417359034936
 20
-24.76893131114272
 10
147.7579339840089
 20
-25.32311191415243
 10
147.4338132205189
 20
-26.24016650745819
 10
147.2566330891776
 20
-27.02068613569788
 10
148.303254003836
 20
-28.11933538577343
 10
148.197589184451
 20
-28.10331696493
 10
148.0944784833504
 20
-28.09146081091918
 10
147.9980211027185
 20
-28.08909588658252
 10
145.1433051691583
 20
-28.01881033528142
 10
142.0121138144211
 20
-29.52271301977497
 10
139.6788479310443
 20
-31.50562324568074
 10
137.2424082819182
 20
-33.57616180135948
 10
135.4905038652675
 20
-36.52963697524
 10
134.9531615235372
 20
-39.99595387471654
 10
132.2555080982902
 20
-39.81139517944413
 10
127.1237484159289
 20
-40.22560379401823
 10
124.1353984911567
 20
-39.85815761667124
 10
125.3940427557234
 20
-38.5057992837036
 10
127.1145725095012
 20
-37.53072521332617
 10
129.04728327481
 20
-36.4216387638427
 10
131.2799610430453
 20
-35.14035429028815
 10
135.7402714075967
 20
-33.05918934125417
 10
136.3227680380042
 20
-32.82345368332547
 10
137.1826545269992
 20
-32.4380025486908
 10
137.0511647338525
 20
-31.43625213179041
 10
136.630176669512
 20
-30.5892623635138
 10
136.1970801925647
 20
-29.71792964072692
 10
135.4017088394876
 20
-28.87185430986075
 10
134.6654290625153
 20
-28.61921732600246
 10
131.3807383521332
 20
-27.53286568247967
 10
127.4652434902163
 20
-27.3199278951612
 10
124.1654803287255
 20
-27.39961007916134
 10
121.690949631609
 20
-27.4593953664053
 10
123.5399420753819
 20
-31.5982336827239
 10
126.0076933227316
 20
-31.52466876967569
 10
127.7747963197898
 20
-31.47200978776826
 10
128.648493966914
 20
-31.42092742208516
 10
130.4896979265365
 20
-31.74728698061501
 10
128.4023526419014
 20
-33.10062281564136
 10
126.5251072353802
 20
-34.13434700958068
 10
124.7491436551394
 20
-35.18667527497203
 10
123.3975420979598
 20
-35.98753325251145
 10
122.088351517227
 20
-36.8333247924571
 10
120.7756923807995
 20
-37.84910709375828
 10
121.2885341063958
 20
-36.62139603952193
 10
121.4732189309667
 20
-35.32235886727689
 10
121.2376409346604
 20
-34.53622648527709
 10
120.3777859779896
 20
-31.65284766875033
 10
116.7556363308555
 20
-31.20174623451663
 10
113.7772506206237
 20
-29.83179286448057
 10
113.7772506206237
 20
-29.24869711990807
 10
117.0317964287881
 20
-28.58333354072618
 10
117.7379628358669
 20
-28.74080596925732
 10
119.1191417134232
 20
-29.0488137149304
 10
119.7640408140073
 20
-31.36962433013108
 10
121.1763736281653
 20
-31.1772771507076
 10
121.5751314037363
 20
-31.13858698855174
 10
121.5450495661675
 20
-30.24202840616843
 10
121.483782259673
 20
-30.01417582936333
 10
120.9001504655835
 20
-28.11085319048419
 10
120.4390532844844
 20
-25.10248023965671
 10
118.3215946299562
 20
-24.63397296230129
 10
116.5406804747688
 20
-24.23991350307991
 10
114.9746275786953
 20
-24.62262132548294
 10
112.0886946438842
 20
-25.99676849467686
 10
110.8300503793175
 20
-26.62022561460404
 10
109.2651011146011
 20
-27.93247483081261
 10
108.5890165450911
 20
-29.08904896098695
 10
107.9140356069379
 20
-30.24587534975657
 10
109.9186085397728
 20
-33.44054127370416
 10
110.9225031547389
 20
-33.51773240406919
 10
112.8653988608601
 20
-33.66710102520479
 10
117.5230069797806
 20
-34.83294565878071
 10
117.8304156112883
 20
-35.45388019274817
 10
118.3215946299562
 20
-36.48445115423754
 10
113.5934802334633
 20
-37.52602689697649
 10
112.6110591314787
 20
-37.44833124941932
 10
110.032534828175
 20
-37.27093039180708
 10
105.9086113013424
 20
-33.58249979858303
 10
104.8494089892108
 20
-31.76075128317413
 10
104.4931567870594
 20
-31.14798362125142
 10
104.2573580644815
 20
-30.74241486358863
 10
104.0847816525174
 20
-30.46786291420596
 10
104.348612611572
 20
-29.96706653656648
 10
104.5095220634729
 20
-29.52715907752842
 10
104.522008863973
 20
-29.20001121088688
 10
104.5763705914035
 20
-27.77834482867779
 10
104.0924124750448
 20
-25.90040571101812
 10
103.1408615187413
 20
-24.5339524290011
 10
102.007369050098
 20
-22.90628537086273
 10
100.6507853856482
 20
-22.08597194911005
 10
99.39504209493556
 20
-21.8992375234467
 10
98.07743238356247
 20
-21.70332719135593
 10
96.78533232270631
 20
-21.87811086603496
 10
95.52668805813956
 20
-22.18901958556145
 10
95.31173220205287
 20
-20.04996128875392
 10
93.40825190155198
 20
-16.27683487193461
 10
91.81211716790897
 20
-19.2491033112145
 10
90.44317283225719
 20
-21.76768466565113
 10
88.77697327358502
 20
-25.48613403179511
 10
87.30939582691101
 20
-29.38542127892084
 10
87.1863251644047
 20
-29.39633146319629
 10
87.05190286507999
 20
-29.41635448925089
 10
86.90411086016938
 20
-29.44747689352828
 10
84.55015977192374
 20
-29.9430704376253
 10
77.29699989447223
 20
-31.21360238852648
 10
74.80238310665185
 20
-30.12453896509762
 10
73.33401735186519
 20
-29.48348680810236
 10
72.50008196593004
 20
-29.24926470174878
 10
72.77630512851151
 20
-27.88161319140144
 10
72.86875790393259
 20
-27.34411318804939
 10
73.11379559758811
 20
-26.8307984775852
 10
73.42120422909522
 20
-26.35983167891866
 10
77.8107875898033
 20
-29.45025173808357
 10
81.03528309272382
 20
-29.6949110438454
 10
83.15271021492778
 20
-28.45329423450637
 10
84.44253994841982
 20
-27.68188744804618
 10
87.35855472080004
 20
-23.90545013715516
 10
86.40731908774077
 20
-21.17695809855093
 10
85.82368729365184
 20
-19.48133888112448
 10
83.82885784908667
 20
-17.94145781438179
 10
82.63148089101505
 20
-17.69105962556237
 10
79.77566132609775
 20
-17.09380586729096
 10
76.6443123097381
 20
-18.22178017914731
 10
74.3111725556594
 20
-20.03179866984416
 10
74.12137949452024
 20
-20.17905462523868
 10
72.91958801101914
 20
-21.53998975046876
 10
72.91958801101914
 20
-21.53998975046876
 10
72.08221560171415
 20
-21.37904876624318
 10
71.08557342138175
 20
-20.46073287995788
 10
70.35758664575171
 20
-19.9054801779147
 10
71.18521556678793
 20
-18.61956045265969
 10
71.98124909867923
 20
-17.50085664420491
 10
72.49998736895619
 20
-17.01166416198002
 10
72.69451027876965
 20
-16.83044789310361
 10
72.73159229237657
 20
-16.39892803238128
 10
72.65162631745624
 20
-15.86584255445871
 10
73.26672737139164
 20
-16.16738617361013
 10
73.89715313503197
 20
-16.39577479993197
 10
74.49494294281947
 20
-16.4846644226851
 10
79.16087559540682
 20
-17.17862782018434
 10
80.94194741221658
 20
-12.51477630101347
 10
82.04696619184062
 20
-10.08044931762855
 97
        1
330
83
 92
        1
 93
        1
 72
     4
 94
        3
 73
     0
 74
     0
 95
       23
 96
       19
 40
0.0
 40
0.0
 40
0.0
 40
0.0
 40
1.0
 40
1.0
 40
1.0
 40
2.0
 40
2.0
 40
2.0
 40
3.0
 40
3.0
 40
3.0
 40
4.0
 40
4.0
 40
4.0
 40
5.0
 40
5.0
 40
5.0
 40
6.0
 40
6.0
 40
6.0
 40
6.0
 10
86.09927980974338
 20
-1.706788289226306
 10
86.54404324675386
 20
-3.013582413297474
 10
87.69916689000103
 20
-4.49052496034689
 10
88.38527873870063
 20
-4.527007859788172
 10
90.3287735589871
 20
-4.630402351809298
 10
94.98584562839152
 20
-5.777327590687735
 10
95.29325425989895
 20
-6.399933337853362
 10
95.78446481089143
 20
-7.433153014600547
 10
91.05625581742501
 20
-8.485039827449307
 10
90.07383471544041
 20
-8.423646391656401
 10
87.49531041213712
 20
-8.289003366060418
 10
86.4962402428185
 20
-7.438765768360991
 10
85.4380784973951
 20
-5.655644350459056
 10
85.11862451793046
 20
-5.117324506670385
 10
84.89543872515076
 20
-4.74123847241143
 10
84.72784442045586
 20
-4.475074121343847
 10
85.27420500699149
 20
-3.381501575511669
 10
85.73482920322332
 20
-2.47267691889988
 10
86.09927980974338
 20
-1.706788289226306
 97
        1
330
84
 92
        1
 93
        1
 72
     4
 94
        3
 73
     0
 74
     0
 95
       20
 96
       16
 40
0.0
 40
0.0
 40
0.0
 40
0.0
 40
1.0
 40
1.0
 40
1.0
 40
2.0
 40
2.0
 40
2.0
 40
3.0
 40
3.0
 40
3.0
 40
4.0
 40
4.0
 40
4.0
 40
5.0
 40
5.0
 40
5.0
 40
5.0
 10
156.3844842548656
 20
-13.72117150389075
 10
157.4894399698408
 20
-13.1202915283025
 10
159.3016026586024
 20
-13.20855050456571
 10
160.5903287607382
 20
-13.53929305620012
 10
160.2840237605873
 20
-14.41396820538332
 10
159.9766151290802
 20
-15.28665681812388
 10
159.6390931276796
 20
-16.19220211298857
 10
158.410562233006
 20
-17.09717982601222
 10
156.9681475812795
 20
-18.08656957171062
 10
156.078179254716
 20
-18.47870555913762
 10
154.3895917456516
 20
-19.25427461243171
 10
151.5013254188278
 20
-19.99755456544175
 10
151.5649891819855
 20
-19.19940836780905
 10
151.7121190080819
 20
-17.35549262827985
 10
154.3272523401236
 20
-14.81534316388792
 10
156.3844842548656
 20
-13.72117150389075
 97
        1
330
85
 92
        1
 93
        1
 72
     4
 94
        3
 73
     0
 74
     0
 95
       26
 96
       22
 40
0.0
 40
0.0
 40
0.0
 40
0.0
 40
1.0
 40
1.0
 40
1.0
 40
2.0
 40
2.0
 40
2.0
 40
3.0
 40
3.0
 40
3.0
 40
4.0
 40
4.0
 40
4.0
 40
5.0
 40
5.0
 40
5.0
 40
6.0
 40
6.0
 40
6.0
 40
7.0
 40
7.0
 40
7.0
 40
7.0
 10
137.4442782233389
 20
5.066197350806303
 10
137.4442782233389
 20
5.066197350806303
 10
141.7328950810123
 20
18.3608560046407
 10
141.7328950810123
 20
18.3608560046407
 10
141.7328950810123
 20
18.3608560046407
 10
146.4267023084533
 20
7.381931261763281
 10
146.4267023084533
 20
7.381931261763281
 10
146.4267023084533
 20
7.381931261763281
 10
156.5957508289863
 20
19.38518356588034
 10
156.5957508289863
 20
19.38518356588034
 10
156.5957508289863
 20
19.38518356588034
 10
156.9998690997229
 20
4.284258767964367
 10
156.9998690997229
 20
4.284258767964367
 10
156.9998690997229
 20
4.284258767964367
 10
169.1326246605439
 20
8.868428103134782
 10
169.1326246605439
 20
8.868428103134782
 10
167.5235932061822
 20
4.461060511410973
 10
165.9769011573471
 20
0.393863636346188
 10
165.2374366156016
 20
-1.279651421608539
 10
153.6904570469355
 20
-2.768292461045726
 10
141.6114325670553
 20
2.875678300421338
 10
137.4442782233389
 20
5.066197350806303
 97
        1
330
86
 92
        1
 93
        1
 72
     4
 94
        3
 73
     0
 74
     0
 95
       17
 96
       13
 40
0.0
 40
0.0
 40
0.0
 40
0.0
 40
1.0
 40
1.0
 40
1.0
 40
2.0
 40
2.0
 40
2.0
 40
3.0
 40
3.0
 40
3.0
 40
4.0
 40
4.0
 40
4.0
 40
4.0
 10
165.9310216252071
 20
-19.70219128189149
 10
167.3710398202724
 20
-17.40111990182523
 10
170.8524922355072
 20
-13.7099459963705
 10
173.2678052272201
 20
-12.62040958807379
 10
174.3006465160746
 20
-12.15451949365094
 10
174.9262793663911
 20
-12.0551611391656
 10
174.9262793663911
 20
-13.2525065649126
 10
174.9262793663911
 20
-17.45835107078455
 10
170.4650860967541
 20
-22.75477255166145
 10
166.0535562381974
 20
-24.12021679929484
 10
163.8824610997017
 20
-24.79220216662016
 10
164.8869548288331
 20
-21.37059810327855
 10
165.9310216252071
 20
-19.70219128189149
 97
        1
330
87
 92
        1
 93
        1
 72
     4
 94
        3
 73
     0
 74
     0
 95
       17
 96
       13
 40
0.0
 40
0.0
 40
0.0
 40
0.0
 40
1.0
 40
1.0
 40
1.0
 40
2.0
 40
2.0
 40
2.0
 40
3.0
 40
3.0
 40
3.0
 40
4.0
 40
4.0
 40
4.0
 40
4.0
 10
146.0332734957218
 20
-35.69756199645001
 10
144.7751652806719
 20
-36.13371710887312
 10
143.3010291105027
 20
-35.70935508581129
 10
141.8886962963447
 20
-34.95330454138064
 10
142.5948627034238
 20
-34.48703605906409
 10
143.3067364612369
 20
-34.07768342246206
 10
143.9771136800133
 20
-33.74832829310562
 10
144.7423401308717
 20
-33.37233685582017
 10
148.9421304304416
 20
-31.67498336054666
 10
148.7041875097973
 20
-32.92366341057203
 10
148.4839657555199
 20
-34.07891318311699
 10
147.1381976783717
 20
-35.31453885080187
 10
146.0332734957218
 20
-35.69756199645001
 97
        1
330
88
 92
        1
 93
        1
 72
     4
 94
        3
 73
     0
 74
     0
 95
       20
 96
       16
 40
0.0
 40
0.0
 40
0.0
 40
0.0
 40
1.0
 40
1.0
 40
1.0
 40
2.0
 40
2.0
 40
2.0
 40
3.0
 40
3.0
 40
3.0
 40
4.0
 40
4.0
 40
4.0
 40
5.0
 40
5.0
 40
5.0
 40
5.0
 10
157.4980482944281
 20
-36.28601823618673
 10
158.6029724770787
 20
-35.68211115744729
 10
160.4140630668074
 20
-35.76336995767209
 10
161.7038612679761
 20
-36.08679701002361
 10
161.3964841687923
 20
-36.96330103402801
 10
161.0901476363181
 20
-37.83744013369512
 10
160.7526256349162
 20
-38.74465664175764
 10
159.5240947402439
 20
-39.65565702876037
 10
158.0816800885174
 20
-40.64999734940467
 10
157.190639662921
 20
-41.04449826116897
 10
155.5020521538566
 20
-41.82432417826951
 10
152.6144480058471
 20
-42.56927534447835
 10
152.6785216892234
 20
-41.77030930640872
 10
152.8265344204063
 20
-39.92481695065454
 10
155.4407848473615
 20
-37.38586571459325
 10
157.4980482944281
 20
-36.28601823618673
 97
        1
330
89
 92
        1
 93
        1
 72
     4
 94
        3
 73
     0
 74
     0
 95
       17
 96
       13
 40
0.0
 40
0.0
 40
0.0
 40
0.0
 40
1.0
 40
1.0
 40
1.0
 40
2.0
 40
2.0
 40
2.0
 40
3.0
 40
3.0
 40
3.0
 40
4.0
 40
4.0
 40
4.0
 40
4.0
 10
141.2228912646202
 20
-11.61219504465141
 10
141.9881177154799
 20
-11.23182061426108
 10
146.1880341443466
 20
-9.515736918237108
 10
145.9500281590541
 20
-10.76529987334831
 10
145.7298379371007
 20
-11.92130642168194
 10
144.3832500195158
 20
-13.16216645523293
 10
143.279082612654
 20
-13.55048703139576
 10
142.0208482683059
 20
-13.99301167336703
 10
140.5468382274345
 20
-13.57678499002535
 10
139.1345684779254
 20
-12.83013107829373
 10
139.8407348850049
 20
-12.35919581195211
 10
140.5525455781685
 20
-11.94539711759663
 10
141.2228912646202
 20
-11.61219504465141
 97
        1
330
8A
 92
        1
 93
        1
 72
     4
 94
        3
 73
     0
 74
     0
 95
      455
 96
      451
 40
0.0
 40
0.0
 40
0.0
 40
0.0
 40
1.0
 40
1.0
 40
1.0
 40
2.0
 40
2.0
 40
2.0
 40
3.0
 40
3.0
 40
3.0
 40
4.0
 40
4.0
 40
4.0
 40
5.0
 40
5.0
 40
5.0
 40
6.0
 40
6.0
 40
6.0
 40
7.0
 40
7.0
 40
7.0
 40
8.0
 40
8.0
 40
8.0
 40
9.0
 40
9.0
 40
9.0
 40
10.0
 40
10.0
 40
10.0
 40
11.0
 40
11.0
 40
11.0
 40
12.0
 40
12.0
 40
12.0
 40
13.0
 40
13.0
 40
13.0
 40
14.0
 40
14.0
 40
14.0
 40
15.0
 40
15.0
 40
15.0
 40
16.0
 40
16.0
 40
16.0
 40
17.0
 40
17.0
 40
17.0
 40
18.0
 40
18.0
 40
18.0
 40
19.0
 40
19.0
 40
19.0
 40
20.0
 40
20.0
 40
20.0
 40
21.0
 40
21.0
 40
21.0
 40
22.0
 40
22.0
 40
22.0
 40
23.0
 40
23.0
 40
23.0
 40
24.0
 40
24.0
 40
24.0
 40
25.0
 40
25.0
 40
25.0
 40
26.0
 40
26.0
 40
26.0
 40
27.0
 40
27.0
 40
27.0
 40
28.0
 40
28.0
 40
28.0
 40
29.0
 40
29.0
 40
29.0
 40
30.0
 40
30.0
 40
30.0
 40
31.0
 40
31.0
 40
31.0
 40
32.0
 40
32.0
 40
32.0
 40
33.0
 40
33.0
 40
33.0
 40
34.0
 40
34.0
 40
34.0
 40
35.0
 40
35.0
 40
35.0
 40
36.0
 40
36.0
 40
36.0
 40
37.0
 40
37.0
 40
37.0
 40
38.0
 40
38.0
 40
38.0
 40
39.0
 40
39.0
 40
39.0
 40
40.0
 40
40.0
 40
40.0
 40
41.0
 40
41.0
 40
41.0
 40
42.0
 40
42.0
 40
42.0
 40
43.0
 40
43.0
 40
43.0
 40
44.0
 40
44.0
 40
44.0
 40
45.0
 40
45.0
 40
45.0
 40
46.0
 40
46.0
 40
46.0
 40
47.0
 40
47.0
 40
47.0
 40
48.0
 40
48.0
 40
48.0
 40
49.0
 40
49.0
 40
49.0
 40
50.0
 40
50.0
 40
50.0
 40
51.0
 40
51.0
 40
51.0
 40
52.0
 40
52.0
 40
52.0
 40
53.0
 40
53.0
 40
53.0
 40
54.0
 40
54.0
 40
54.0
 40
55.0
 40
55.0
 40
55.0
 40
56.0
 40
56.0
 40
56.0
 40
57.0
 40
57.0
 40
57.0
 40
58.0
 40
58.0
 40
58.0
 40
59.0
 40
59.0
 40
59.0
 40
60.0
 40
60.0
 40
60.0
 40
61.0
 40
61.0
 40
61.0
 40
62.0
 40
62.0
 40
62.0
 40
63.0
 40
63.0
 40
63.0
 40
64.0
 40
64.0
 40
64.0
 40
65.0
 40
65.0
 40
65.0
 40
66.0
 40
66.0
 40
66.0
 40
67.0
 40
67.0
 40
67.0
 40
68.0
 40
68.0
 40
68.0
 40
69.0
 40
69.0
 40
69.0
 40
70.0
 40
70.0
 40
70.0
 40
71.0
 40
71.0
 40
71.0
 40
72.0
 40
72.0
 40
72.0
 40
73.0
 40
73.0
 40
73.0
 40
74.0
 40
74.0
 40
74.0
 40
75.0
 40
75.0
 40
75.0
 40
76.0
 40
76.0
 40
76.0
 40
77.0
 40
77.0
 40
77.0
 40
78.0
 40
78.0
 40
78.0
 40
79.0
 40
79.0
 40
79.0
 40
80.0
 40
80.0
 40
80.0
 40
81.0
 40
81.0
 40
81.0
 40
82.0
 40
82.0
 40
82.0
 40
83.0
 40
83.0
 40
83.0
 40
84.0
 40
84.0
 40
84.0
 40
85.0
 40
85.0
 40
85.0
 40
86.0
 40
86.0
 40
86.0
 40
87.0
 40
87.0
 40
87.0
 40
88.0
 40
88.0
 40
88.0
 40
89.0
 40
89.0
 40
89.0
 40
90.0
 40
90.0
 40
90.0
 40
91.0
 40
91.0
 40
91.0
 40
92.0
 40
92.0
 40
92.0
 40
93.0
 40
93.0
 40
93.0
 40
94.0
 40
94.0
 40
94.0
 40
95.0
 40
95.0
 40
95.0
 40
96.0
 40
96.0
 40
96.0
 40
97.0
 40
97.0
 40
97.0
 40
98.0
 40
98.0
 40
98.0
 40
99.0
 40
99.0
 40
99.0
 40
100.0
 40
100.0
 40
100.0
 40
101.0
 40
101.0
 40
101.0
 40
102.0
 40
102.0
 40
102.0
 40
103.0
 40
103.0
 40
103.0
 40
104.0
 40
104.0
 40
104.0
 40
105.0
 40
105.0
 40
105.0
 40
106.0
 40
106.0
 40
106.0
 40
107.0
 40
107.0
 40
107.0
 40
108.0
 40
108.0
 40
108.0
 40
109.0
 40
109.0
 40
109.0
 40
110.0
 40
110.0
 40
110.0
 40
111.0
 40
111.0
 40
111.0
 40
112.0
 40
112.0
 40
112.0
 40
113.0
 40
113.0
 40
113.0
 40
114.0
 40
114.0
 40
114.0
 40
115.0
 40
115.0
 40
115.0
 40
116.0
 40
116.0
 40
116.0
 40
117.0
 40
117.0
 40
117.0
 40
118.0
 40
118.0
 40
118.0
 40
119.0
 40
119.0
 40
119.0
 40
120.0
 40
120.0
 40
120.0
 40
121.0
 40
121.0
 40
121.0
 40
122.0
 40
122.0
 40
122.0
 40
123.0
 40
123.0
 40
123.0
 40
124.0
 40
124.0
 40
124.0
 40
125.0
 40
125.0
 40
125.0
 40
126.0
 40
126.0
 40
126.0
 40
127.0
 40
127.0
 40
127.0
 40
128.0
 40
128.0
 40
128.0
 40
129.0
 40
129.0
 40
129.0
 40
130.0
 40
130.0
 40
130.0
 40
131.0
 40
131.0
 40
131.0
 40
132.0
 40
132.0
 40
132.0
 40
133.0
 40
133.0
 40
133.0
 40
134.0
 40
134.0
 40
134.0
 40
135.0
 40
135.0
 40
135.0
 40
136.0
 40
136.0
 40
136.0
 40
137.0
 40
137.0
 40
137.0
 40
138.0
 40
138.0
 40
138.0
 40
139.0
 40
139.0
 40
139.0
 40
140.0
 40
140.0
 40
140.0
 40
141.0
 40
141.0
 40
141.0
 40
142.0
 40
142.0
 40
142.0
 40
143.0
 40
143.0
 40
143.0
 40
144.0
 40
144.0
 40
144.0
 40
145.0
 40
145.0
 40
145.0
 40
146.0
 40
146.0
 40
146.0
 40
147.0
 40
147.0
 40
147.0
 40
148.0
 40
148.0
 40
148.0
 40
149.0
 40
149.0
 40
149.0
 40
150.0
 40
150.0
 40
150.0
 40
150.0
 10
181.3638556707648
 20
-29.62730574012672
 10
180.9025692957169
 20
-26.84451503874087
 10
179.4897634966927
 20
-25.46598487644239
 10
176.2680743706534
 20
-26.4534511503464
 10
173.5768535396018
 20
-27.278305226827
 10
169.0317842868062
 20
-31.70096599593081
 10
166.7989488569488
 20
-34.79138605509572
 10
166.995395238556
 20
-34.1813617054037
 10
167.1435656313606
 20
-33.63578942698072
 10
167.2296173449096
 20
-33.16340367371223
 10
167.6551145316538
 20
-30.82761520437636
 10
165.4496806917812
 20
-25.09308360695703
 10
163.7299392461165
 20
-30.0385818485225
 10
163.5461373266311
 20
-30.59351922732088
 10
163.3311814705454
 20
-31.15324951944181
 10
163.1463074520272
 20
-31.73757502466988
 10
162.4100276750543
 20
-31.37334514442174
 10
161.6114400248794
 20
-31.10169416889183
 10
160.7526256349162
 20
-30.88544548750068
 10
157.805425393612
 20
-30.13715189489615
 10
153.6300411132022
 20
-33.2630142867938
 10
152.0024686520361
 20
-35.53658947990015
 10
150.7373287286253
 20
-37.30385013858042
 10
150.1769362576892
 20
-38.83575352722568
 10
149.9642191966417
 20
-40.34239952394989
 10
149.730470075156
 20
-40.32234496557068
 10
149.3974887284811
 20
-40.39026559253414
 10
148.9503288348103
 20
-40.5725539604434
 10
146.5919947534595
 20
-41.53403759896327
 10
142.6647383345057
 20
-42.44844347701122
 10
140.1700269497124
 20
-41.56036708991716
 10
138.7027648262832
 20
-41.03803413464762
 10
137.8677258089903
 20
-40.83594346695505
 10
138.143980503896
 20
-39.45347176409429
 10
138.23532964796
 20
-38.91086352417424
 10
138.481470972973
 20
-38.38439983439575
 10
138.7888796044801
 20
-37.89429291476074
 10
143.1784944975131
 20
-40.71148538217076
 10
146.4019494337247
 20
-40.40032440404837
 10
148.5203855903133
 20
-38.7533595633185
 10
149.8091116924475
 20
-37.73502314373333
 10
152.7262300961843
 20
-33.28890232520476
 10
151.7739223640928
 20
-30.78365914402914
 10
151.7075468210303
 20
-30.60603756014559
 10
151.620769864018
 20
-30.43516389370391
 10
151.5209385246651
 20
-30.27021830426716
 10
152.1188859940753
 20
-30.4864985179826
 10
152.7490910314434
 20
-30.60783490264187
 10
153.3766788858805
 20
-30.56044181892514
 10
157.1948649944032
 20
-30.27204717908837
 10
159.614907834792
 20
-26.42081519449357
 10
161.0245919336916
 20
-23.49351184994421
 10
161.021375636593
 20
-23.61689783569566
 10
161.0190107122564
 20
-23.74230189021468
 10
161.0190107122564
 20
-23.87376015103738
 10
161.0190107122564
 20
-26.45228445434005
 10
164.6111415864696
 20
-28.40902285091467
 10
167.6496909718404
 20
-27.49562600725067
 10
171.2729757826553
 20
-26.4064364545237
 10
173.4828241479564
 20
-24.29528426489407
 10
175.4475717549524
 20
-21.07993313607765
 10
178.2409888496922
 20
-16.56727911286357
 10
178.6691978163425
 20
-14.217206500531
 10
178.2409888496922
 20
-11.62373587541678
 10
177.7797024746468
 20
-8.829877328133083
 10
176.3669597402718
 20
-7.413886764333976
 10
173.1453336788804
 20
-8.338950568061457
 10
170.6843934136217
 20
-9.045589960007813
 10
166.6726303650184
 20
-12.7523408337637
 10
164.2965120526528
 20
-15.72331644773848
 10
165.9938655479263
 20
-11.50801224451796
 10
167.8259251334453
 20
-6.772109363874641
 10
168.67401853308
 20
-4.179363982224175
 10
169.6778500833972
 20
-2.486078156810421
 10
171.2449120138537
 20
1.6105383770093
 10
174.8980579359677
 20
11.87796774996796
 10
174.8980579359677
 20
11.87796774996796
 10
176.4899042734781
 20
16.35413887374107
 10
176.4899042734781
 20
16.35413887374107
 10
176.4899042734781
 20
16.35413887374107
 10
161.2347233441302
 20
10.59031374686589
 10
161.2347233441302
 20
10.59031374686589
 10
161.2347233441302
 20
10.59031374686589
 10
160.6887096131642
 20
31.02672857570929
 10
160.6887096131642
 20
31.02672857570929
 10
160.6887096131642
 20
31.02672857570929
 10
147.6735219513338
 20
15.6646215339956
 10
147.6735219513338
 20
15.6646215339956
 10
147.6735219513338
 20
15.6646215339956
 10
141.1546237820873
 20
30.91065808924073
 10
141.1546237820873
 20
30.91065808924073
 10
141.1546237820873
 20
30.91065808924073
 10
132.162550805677
 20
3.033686778468898
 10
132.162550805677
 20
3.033686778468898
 10
132.162550805677
 20
3.033686778468898
 10
133.1176964469736
 20
2.456676772524042
 10
133.1176964469736
 20
2.456676772524042
 10
132.0055513620137
 20
2.077185247219227
 10
131.0513516904524
 20
1.176842785896679
 10
130.9997648075775
 20
-0.1782273269773677
 10
130.907974210971
 20
-2.589535713480444
 10
132.23271022768
 20
-4.427649505302513
 10
134.5629805402295
 20
-4.667768156336413
 10
136.208053441489
 20
-4.837317465149343
 10
137.5414923797589
 20
-1.913261950023434
 10
137.366014993941
 20
-0.463279540417503
 10
137.3371629170274
 20
-0.2249266995552695
 10
137.2977159790832
 20
-0.0003850168222064
 10
137.2512058004523
 20
0.2160213261910267
 10
142.1489010380824
 20
-2.173561288734347
 10
151.4116790202876
 20
-5.932088239311835
 10
161.2390432725861
 20
-5.932088239311835
 10
161.9436330634403
 20
-5.932088239311835
 10
162.651817539287
 20
-5.905443425113154
 10
163.361042581842
 20
-5.8648297911629
 10
163.0742560905544
 20
-6.372689409489041
 10
162.8202001520926
 20
-6.919207657646437
 10
162.6164067388786
 20
-7.503785421470735
 10
162.4326048193933
 20
-8.057429974964655
 10
162.2176489633062
 20
-8.615709780159042
 10
162.0338470438222
 20
-9.198647863109465
 10
161.2964951678164
 20
-8.829782731159898
 10
160.4979075176414
 20
-8.553433439280302
 10
159.6390931276796
 20
-8.332990958731924
 10
156.6918928863741
 20
-7.570224029183053
 10
152.5165086059643
 20
-10.69141963705562
 10
150.8889361447995
 20
-12.96594079989639
 10
149.7996835274242
 20
-14.48813223259748
 10
149.2341828199195
 20
-15.83579224921449
 10
148.9616174069804
 20
-17.1430278258289
 10
148.9608290988665
 20
-17.14334314907338
 10
148.9601984523769
 20
-17.1434377460472
 10
148.9594101442642
 20
-17.14375306929201
 10
146.6009499336169
 20
-18.11343511218092
 10
139.9105159191138
 20
-20.31902661367459
 10
137.4158991312931
 20
-19.44920744246315
 10
135.9486685401886
 20
-18.93762700984699
 10
135.113597990571
 20
-18.7425995828414
 10
135.3898211531531
 20
-17.35788908494144
 10
135.4812018295407
 20
-16.81455560155797
 10
135.7273431545537
 20
-16.28610537533618
 10
136.033648154704
 20
-15.79347586974147
 10
140.4243036144449
 20
-18.57642423275004
 10
143.6477270183316
 20
-18.25041152978992
 10
145.7662262395694
 20
-16.59565820490963
 10
147.0549838740286
 20
-15.57256040432524
 10
149.972070745441
 20
-11.12000699159993
 10
149.0197630133495
 20
-8.616655749894412
 10
148.4372033182935
 20
-7.059148113758383
 10
146.4412387100465
 20
-5.95813393934552
 10
145.2438617519746
 20
-5.933381064616618
 10
142.3891142860902
 20
-5.874321020836089
 10
138.8065061738731
 20
-6.968240422237678
 10
136.9246885803004
 20
-9.398089815544215
 10
135.9185236379702
 20
-10.69728464941165
 10
134.9464766707446
 20
-10.43430506311863
 10
134.1895432212281
 20
-10.05358377715825
 10
134.2784013116563
 20
-8.179996120278849
 10
132.4574726366847
 20
-3.844269969809815
 10
130.6085432575603
 20
-6.793929732425528
 10
128.6830849268855
 20
-9.865619590840296
 10
127.1128382316538
 20
-13.91761788549826
 10
126.3414314451933
 20
-16.76240113684234
 10
126.2762541304608
 20
-17.00277204647215
 10
126.2409379270259
 20
-17.25575588590049
 10
126.230689921565
 20
-17.51476239930726
 10
126.0573252014882
 20
-17.19417325616057
 10
123.5363789227139
 20
-17.0503227918116
 10
122.9706890212628
 20
-16.71144490045768
 10
121.2728310087969
 20
-15.69443283850093
 10
120.4838922499172
 20
-14.3858729042581
 10
120.0462551182432
 20
-12.98804495936811
 10
120.7835754619237
 20
-12.08811241826355
 10
123.6383544601328
 20
-11.11925021581189
 10
124.6820744009371
 20
-10.75073193943174
 10
125.2657061950261
 20
-10.5467177999451
 10
129.0505626365574
 20
-9.438356593924735
 10
129.0717208262938
 20
-8.990408392140349
 10
129.1722774091104
 20
-6.861881891713608
 10
125.9306913863139
 20
-6.115448706253935
 10
124.5283227866963
 20
-6.333431665491825
 10
122.5436782829435
 20
-6.641849331383537
 10
120.3224782808241
 20
-7.276941879049584
 10
118.3576676091795
 20
-8.139256357030481
 10
120.1074908924137
 20
-5.391308874212676
 10
122.7485122628668
 20
-1.500062369832951
 10
123.8533103162195
 20
-0.6254187529740346
 10
124.8957689640433
 20
0.1998767760494805
 10
122.749174441681
 20
6.250141538642443
 10
120.2923018462821
 20
2.92843187930228
 10
118.9552051583707
 20
1.120683715969877
 10
117.4677623472642
 20
-0.9282551974295897
 10
116.0574791341987
 20
-3.097174605534966
 10
114.482565654941
 20
-2.116203990477229
 10
111.502887119405
 20
-1.098466685057054
 10
110.3386506343783
 20
-0.7705305103028659
 10
111.1060843479523
 20
0.1927504707135974
 10
111.8122507550311
 20
0.9565264346457725
 10
112.2723073694219
 20
1.3145759792934
 10
113.2858508756842
 20
2.103451673524209
 10
111.5047790588748
 20
8.971538804235393
 10
109.0187705956414
 20
5.729921249113996
 10
107.7601263310754
 20
4.081758180053168
 10
106.3478565815663
 20
2.257297884738188
 10
104.9967910739034
 20
0.3594303379967672
 10
98.52711486319456
 20
3.420619932354078
 10
97.90290096747902
 20
3.932137300321665
 10
95.7843702139179
 20
4.416757595495305
 10
94.0033929940823
 20
4.824186760302302
 10
92.43847526168956
 20
4.446713303765702
 10
89.55254232687913
 20
3.018425133412864
 10
88.52193983306483
 20
2.488587484913435
 10
87.29299901817356
 20
1.482895527450443
 10
86.50809639682901
 20
0.4883660128594436
 10
86.21074657683546
 20
3.11765735860073
 10
84.28352243598896
 20
7.195764417940959
 10
82.87566721190936
 20
3.732569218589123
 10
82.59941251700327
 20
3.017447631353526
 10
82.41561059751825
 20
2.161660344543193
 10
82.01578072291434
 20
1.468548319805172
 10
79.4372564196107
 20
-2.810577308194783
 10
76.02993649926549
 20
-4.728404816341599
 10
73.51261643780775
 20
-5.411867949783709
 10
73.17402233737467
 20
-4.135943971393699
 10
74.95503108953489
 20
-1.015946591852086
 10
76.12131717565372
 20
0.3044064317520253
 10
77.80987315239285
 20
2.217945543767788
 10
76.23697774190365
 20
6.205239508560817
 10
75.13883300901958
 20
6.197924009277603
 10
74.37868326240423
 20
6.192878837358509
 10
73.41631671879854
 20
4.938081516380564
 10
72.35506480557439
 20
3.334158298587147
 10
72.31549173833236
 20
3.653959133621827
 10
72.198506814454
 20
3.99242710475744
 10
72.04081365965158
 20
4.309610756858908
 10
71.60771718270459
 20
5.180817350347675
 10
70.81221970032939
 20
6.019766375877959
 10
70.07593992335744
 20
6.252285736708451
 10
66.79118614832576
 20
7.248801787742737
 10
62.87367321764202
 20
7.075500132315176
 10
59.57580199562031
 20
6.436339914789053
 10
57.09884330951757
 20
5.956323338992551
 10
58.94707897750243
 20
2.169543425666796
 10
61.41807805427596
 20
2.600937157091328
 10
63.18369903208267
 20
2.909197161360317
 10
64.05894176310659
 20
3.062885710951895
 10
65.90014572272939
 20
2.891412930344576
 10
63.81280043809393
 20
1.362505112526867
 10
61.9378884235861
 20
0.0874955715469792
 10
60.15943378970924
 20
-1.253984109469516
 10
58.92774966258696
 20
-2.183052518407856
 10
57.26523938588087
 20
-3.302323908703665
 10
55.74465610172968
 20
-4.542143375546093
 10
56.22350598151983
 20
-3.235191589852523
 10
56.39144714178318
 20
-1.957754059886432
 10
56.16280625686575
 20
-1.246889336458242
 10
55.30295130019534
 20
1.440516083328524
 10
51.68073858841232
 20
0.9905813451011733
 10
48.702447475154
 20
1.384483142699835
 10
48.702447475154
 20
1.967610419597268
 10
51.95696175099316
 20
3.632201829719837
 10
52.66312815807263
 20
3.668810858459232
 10
54.04430703562926
 20
3.740357702739862
 10
54.68920613621297
 20
1.58269533447934
 10
56.10153895037095
 20
2.098059646035384
 10
56.50029672594234
 20
2.227941290632469
 10
56.47021488837351
 20
3.116774453514897
 10
56.40787548284555
 20
3.330847404515112
 10
55.82531578778947
 20
5.103090170466214
 10
55.36421860669013
 20
8.030614241286558
 10
53.24679148448584
 20
7.933746940435998
 10
51.46578273232563
 20
7.852235881614975
 10
49.89972983625178
 20
7.031985524511195
 10
47.01385996608992
 20
4.647164290584078
 10
45.75521570152352
 20
3.582916806533653
 10
44.19026643680679
 20
1.672657056265316
 10
43.5141818672968
 20
0.2479005062561321
 10
42.83920092914393
 20
-1.176698382130329
 10
44.84664330350731
 20
-3.580312881456492
 10
45.84766847694459
 20
-3.291256062805499
 10
47.79904637835467
 20
-2.727710359420081
 10
52.44817230198626
 20
-2.482105083923851
 10
52.75558093349371
 20
-3.01894290846137
 10
53.24679148448584
 20
-3.915091570626371
 10
48.51864555566866
 20
-6.363734229332274
 10
47.53622445368374
 20
-6.623245259930859
 10
44.95770015038075
 20
-7.330956750910378
 10
43.95601279812892
 20
-6.855890750059785
 10
42.90046823563872
 20
-5.467743228789996
 10
42.39951419637717
 20
-4.808969905428212
 10
41.0093170740152
 20
-3.14232889421282
 10
39.99362936968721
 20
-1.994773008844135
 10
41.30278841809568
 20
0.4346664642437724
 10
42.71638252523351
 20
2.766923313236316
 10
44.06558762575121
 20
4.78300554451134
 10
45.69287629599588
 20
7.204309677879417
 10
43.6982045130528
 20
12.44290087563135
 10
42.10077695410566
 20
9.963545732866686
 10
39.89777110322059
 20
6.544275061537459
 10
36.79007133023239
 20
-0.3992373893670979
 10
34.51788355940401
 20
-4.763657955127635
 10
34.51788355940401
 20
-3.535631577646485
 10
35.50027312906464
 20
1.054686560800474
 10
35.80768176057176
 20
2.11533935985867
 10
36.45150876212328
 20
4.274609876668777
 10
33.66067731799141
 20
5.866519278828977
 10
32.1231296432611
 20
3.693185345294434
 10
30.84629122746097
 20
1.888338155815438
 10
27.94847060631511
 20
-3.481553641136472
 10
25.89123869157342
 20
-7.249761015333838
 10
26.44368501673638
 20
-4.235806843071492
 10
28.31607444528483
 20
0.3692999555639758
 10
29.05339478896565
 20
1.886666942616956
 10
30.4044602966282
 20
4.724923002790148
 10
27.14985142381553
 20
6.854300875978115
 10
25.79878591615234
 20
3.949606208092924
 10
23.37395016244061
 20
-1.289237248255553
 10
21.59786045290137
 20
-8.541325026674224
 10
21.77674332976477
 20
-13.72249586151982
 10
21.83063207232777
 20
-15.28230535734329
 10
24.45443679360673
 20
-17.84071203761849
 10
25.36884267165435
 20
-15.35019445198248
 10
26.57031883191065
 20
-12.07792747745122
 10
29.39088525804193
 20
-7.57993598512786
 10
31.23316131669725
 20
-4.597766395956153
 10
31.32454199308549
 20
-7.546480188837457
 10
31.1895836442447
 20
-9.043414229617518
 10
31.35569592968748
 20
-10.72944762039727
 10
31.52411007481803
 20
-12.43909872222387
 10
34.88652796508195
 20
-14.51480857912045
 10
35.65396167865622
 20
-11.95378471591237
 10
36.27675661976853
 20
-9.913737918020453
 10
37.16845922417976
 20
-7.717385387604387
 10
38.2082691567464
 20
-5.517122848950006
 10
38.75283240078577
 20
-6.257470295782351
 10
39.51777506072429
 20
-7.378192173005023
 10
40.46434390975753
 20
-8.461548245700258
 10
37.92889276171561
 20
-12.65462216015127
 10
33.63545145839499
 20
-22.2640665178608
 10
31.64226169470369
 20
-26.73670602129026
 10
31.33485306319593
 20
-23.47963762716678
 10
32.26937656427168
 20
-19.91601197429644
 10
32.13340918104662
 20
-16.64983073839315
 10
32.07813301620597
 20
-15.32150003669129
 10
29.27755808380501
 20
-14.01234098828314
 10
28.57139167672587
 20
-14.89366945793502
 10
24.42794964103077
 20
-20.02984366572516
 10
19.23549023401571
 20
-30.30827781993342
 10
19.1774392246188
 20
-35.88376037259695
 10
19.17419139519599
 20
-36.19400691330858
 10
19.26661263829277
 20
-36.51270411698613
 10
19.41254423605822
 20
-36.82260380212899
 10
18.41908682050006
 20
-36.62322491434313
 10
17.38372294568687
 20
-36.57592642759927
 10
16.30046146996546
 20
-36.74825058096781
 10
9.703552329916346
 20
-37.94386172886744
 10
9.850335300443338
 20
-47.94386545777995
 10
17.14139703193839
 20
-47.27591622798946
 10
20.20813631540693
 20
-46.92962824037882
 10
23.05235198490998
 20
-46.03861934710642
 10
25.9149509995944
 20
-45.19780991443128
 10
25.9149509995944
 20
-45.19780991443128
 10
27.29182677571934
 20
-142.2043901197549
 10
27.29182677571934
 20
-142.2043901197549
 10
27.29182677571934
 20
-142.2043901197549
 10
29.23377651210545
 20
-142.2043901197549
 10
29.23377651210545
 20
-142.2043901197549
 10
29.23377651210545
 20
-142.2043901197549
 10
30.27606067128226
 20
-45.38400829057788
 10
30.27606067128226
 20
-45.38400829057788
 10
30.37891911378729
 20
-45.43351404003601
 10
30.48139916839798
 20
-45.4848486643147
 10
30.58428914322697
 20
-45.53410215517692
 10
37.68413885898092
 20
-48.91600702197903
 10
45.86450673822496
 20
-51.79522357167221
 10
53.28002655450462
 20
-54.44188922821028
 10
59.91401770816034
 20
-56.75806459171018
 10
83.90081461358594
 20
-65.2165160406812
 10
83.99068173839808
 20
-52.6740925200136
 10
83.58615354744385
 20
-45.13963277573722
 10
68.65083651777853
 20
-40.4974124311699
 10
63.45985913001494
 20
-45.51467824328763
 10
62.23826534673117
 20
-46.61023732556277
 10
61.57403693123102
 20
-48.26227887053602
 10
61.47950302239348
 20
-49.83936808018374
 10
61.44503819171944
 20
-50.28413151719389
 10
61.72848225661064
 20
-50.70578176034932
 10
62.17457005124986
 20
-50.82904161680266
 10
62.69166864065327
 20
-50.97314433974722
 10
63.22711904291283
 20
-50.65630754321549
 10
63.3530591469486
 20
-50.13514128395232
 10
64.83217742438798
 20
-44.95936247659586
 10
71.37005805298151
 20
-46.554835031424
 10
75.09033629394572
 20
-48.30188347010264
 10
76.91060279010283
 20
-49.2609706519606
 10
79.02358385455335
 20
-50.445135566069
 10
79.76222855586228
 20
-52.3723597069155
 10
80.18249137674008
 20
-54.12249831339424
 10
78.86677360483642
 20
-54.82598447289127
 10
77.00437992315298
 20
-55.20803011647977
 10
71.98802854844569
 20
-56.04950172796944
 10
66.7353424016444
 20
-55.06742748155392
 10
61.74330244912344
 20
-54.09563277292425
 10
51.41315528274247
 20
-52.09512750995007
 10
41.35626724044037
 20
-48.35255591556745
 10
31.98681540446664
 20
-43.57830972833735
 10
43.94636390683333
 20
-40.6734258665045
 10
56.39614545813318
 20
-39.90968143489694
 10
68.65439967044647
 20
-41.03267363948309
 10
79.28177052752285
 20
-42.10136718128793
 10
89.54393400229177
 20
-45.36565647772112
 10
99.78960607134908
 20
-48.38780905435315
 10
110.1332490726141
 20
-51.49957649720176
 10
120.6449593634409
 20
-54.33985062614284
 10
131.3892205474224
 20
-55.7813193081346
 10
139.4654686911825
 20
-56.8953878648886
 10
148.6198070094475
 20
-57.34276848483227
 10
156.0283897143374
 20
-52.8873140982526
 10
158.6561359761776
 20
-51.24615120523017
 10
161.1072066238697
 20
-48.88258275801388
 10
162.2409828834332
 20
-45.90643584282124
 10
162.2809658708945
 20
-45.74142718873559
 10
162.3012726878693
 20
-45.58386016323127
 10
162.3107954498665
 20
-45.43114911569871
 10
162.5735858422128
 20
-45.00918354929878
 10
162.7837172526514
 20
-44.61644844770615
 10
162.9313515959402
 20
-44.26934061965826
 10
163.3645742021853
 20
-43.25150871726457
 10
163.7766701510184
 20
-42.29286298794987
 10
164.1638240311758
 20
-41.38939882650197
 10
164.1498236790996
 20
-41.63084183516494
 10
164.1418144686772
 20
-41.88474011200308
 10
164.1418144686772
 20
-42.15919746441289
 10
164.1418144686772
 20
-43.82252758155593
 10
165.6388115741062
 20
-45.20755340270038
 10
167.5154578664627
 20
-45.72799441850044
 10
167.5154578664627
 20
-45.72799441850044
 10
168.9961842924514
 20
-142.3979344499654
 10
168.9961842924514
 20
-142.3979344499654
 10
168.9961842924514
 20
-142.3979344499654
 10
170.9381340288375
 20
-142.3979344499654
 10
170.9381340288375
 20
-142.3979344499654
 10
170.9381340288375
 20
-142.3979344499654
 10
171.8968428228001
 20
-45.29445648901054
 10
171.8968428228001
 20
-45.29445648901054
 10
174.8678184367772
 20
-44.07964215549324
 10
176.8180611745045
 20
-42.05271280459135
 10
178.5703755113745
 20
-39.14738749021527
 10
181.3638556707648
 20
-34.57460132418815
 10
181.7920646374151
 20
-32.21040223048129
 10
181.3638556707648
 20
-29.62730574012672
 97
        1
330
8B
 75
     2
 76
     1
 98
        1
 10
0.0
 20
0.0
450
        0
451
        0
460
0.0
461
0.0
452
        0
462
0.0
453
        0
470

  0
SPLINE
  5
8D
330
70
100
AcDbEntity
  8
Layer 1
100
AcDbSpline
210
0.0
220
0.0
230
1.0
 70
     9
 71
     3
 72
    26
 73
    22
 74
     0
 42
0.0000000001
 43
0.0000000001
 40
0.0
 40
0.0
 40
0.0
 40
0.0
 40
1.0
 40
1.0
 40
1.0
 40
2.0
 40
2.0
 40
2.0
 40
3.0
 40
3.0
 40
3.0
 40
4.0
 40
4.0
 40
4.0
 40
5.0
 40
5.0
 40
5.0
 40
6.0
 40
6.0
 40
6.0
 40
7.0
 40
7.0
 40
7.0
 40
7.0
 10
371.2901184033869
 20
-43.84172318498962
 30
0.0
 10
358.0348475926266
 20
-45.54167063325572
 30
0.0
 10
342.0861636910374
 20
-38.64144827143258
 30
0.0
 10
336.2203706749659
 20
-35.74561908198247
 30
0.0
 10
336.2203706749659
 20
-35.74561908198247
 30
0.0
 10
342.7836435903694
 20
-17.24389590506708
 30
0.0
 10
342.7836435903694
 20
-17.24389590506708
 30
0.0
 10
342.7836435903694
 20
-17.24389590506708
 30
0.0
 10
349.0747758985926
 20
-32.02412118054001
 30
0.0
 10
349.0747758985926
 20
-32.02412118054001
 30
0.0
 10
349.0747758985926
 20
-32.02412118054001
 30
0.0
 10
360.7504222202195
 20
-18.2425145536766
 30
0.0
 10
360.7504222202195
 20
-18.2425145536766
 30
0.0
 10
360.7504222202195
 20
-18.2425145536766
 30
0.0
 10
363.7371208033568
 20
-34.11631796319886
 30
0.0
 10
363.7371208033568
 20
-34.11631796319886
 30
0.0
 10
363.7371208033568
 20
-34.11631796319886
 30
0.0
 10
375.1447503774369
 20
-30.31738628329801
 30
0.0
 10
375.1447503774369
 20
-30.31738628329801
 30
0.0
 10
373.2973301741314
 20
-35.37773801586584
 30
0.0
 10
372.1391665662949
 20
-41.9202580837562
 30
0.0
 10
371.2901184033869
 20
-43.84172318498962
 30
0.0
  0
SPLINE
  5
8E
330
70
100
AcDbEntity
  8
Layer 1
100
AcDbSpline
210
0.0
220
0.0
230
1.0
 70
    11
 71
     3
 72
    47
 73
    43
 74
     0
 42
0.0000000001
 43
0.0000000001
 40
0.0
 40
0.0
 40
0.0
 40
0.0
 40
1.0
 40
1.0
 40
1.0
 40
2.0
 40
2.0
 40
2.0
 40
3.0
 40
3.0
 40
3.0
 40
4.0
 40
4.0
 40
4.0
 40
5.0
 40
5.0
 40
5.0
 40
6.0
 40
6.0
 40
6.0
 40
7.0
 40
7.0
 40
7.0
 40
8.0
 40
8.0
 40
8.0
 40
9.0
 40
9.0
 40
9.0
 40
10.0
 40
10.0
 40
10.0
 40
11.0
 40
11.0
 40
11.0
 40
12.0
 40
12.0
 40
12.0
 40
13.0
 40
13.0
 40
13.0
 40
14.0
 40
14.0
 40
14.0
 40
14.0
 10
366.0767185445124
 20
-28.33977046780204
 30
0.0
 10
366.0767185445124
 20
-28.33977046780204
 30
0.0
 10
365.4498050753882
 20
-4.876176396025375
 30
0.0
 10
365.4498050753882
 20
-4.876176396025375
 30
0.0
 10
365.4498050753882
 20
-4.876176396025375
 30
0.0
 10
350.3975524613675
 20
-25.40600621477693
 30
0.0
 10
350.3975524613675
 20
-25.40600621477693
 30
0.0
 10
350.3975524613675
 20
-25.40600621477693
 30
0.0
 10
343.0216054929721
 20
-5.009457212296393
 30
0.0
 10
343.0216054929721
 20
-5.009457212296393
 30
0.0
 10
343.0216054929721
 20
-5.009457212296393
 30
0.0
 10
332.6972785585344
 20
-37.01598138252484
 30
0.0
 10
332.6972785585344
 20
-37.01598138252484
 30
0.0
 10
332.6972785585344
 20
-37.01598138252484
 30
0.0
 10
334.4101838639367
 20
-38.05075883106943
 30
0.0
 10
334.4101838639367
 20
-38.05075883106943
 30
0.0
 10
334.8556102030354
 20
-38.31986575697658
 30
0.0
 10
340.9481940907814
 20
-41.9477572350445
 30
0.0
 10
349.4446147377237
 20
-44.58136456812262
 30
0.0
 10
349.4446147377237
 20
-44.58136456812262
 30
0.0
 10
351.1339953620145
 20
-154.8761763585246
 30
0.0
 10
351.1339953620145
 20
-154.8761763585246
 30
0.0
 10
351.1339953620145
 20
-154.8761763585246
 30
0.0
 10
353.3636723508721
 20
-154.8761763585246
 30
0.0
 10
353.3636723508721
 20
-154.8761763585246
 30
0.0
 10
353.3636723508721
 20
-154.8761763585246
 30
0.0
 10
354.4393287534827
 20
-45.92697632776117
 30
0.0
 10
354.4393287534827
 20
-45.92697632776117
 30
0.0
 10
358.1056310223508
 20
-46.75990429934962
 30
0.0
 10
362.0527639926302
 20
-47.31069035779204
 30
0.0
 10
366.0816548710404
 20
-47.31069035779204
 30
0.0
 10
368.2672134415519
 20
-47.31069035779204
 30
0.0
 10
370.478687726335
 20
-47.14840862316624
 30
0.0
 10
372.6802893580642
 20
-46.78126933760615
 30
0.0
 10
374.4363875205922
 20
-46.48879199078993
 30
0.0
 10
374.8029097653356
 20
-46.42770494999946
 30
0.0
 10
381.7643642522083
 20
-26.86195771332054
 30
0.0
 10
381.7643642522083
 20
-26.86195771332054
 30
0.0
 10
383.5920391493983
 20
-21.72262475629595
 30
0.0
 10
383.5920391493983
 20
-21.72262475629595
 30
0.0
 10
383.5920391493983
 20
-21.72262475629595
 30
0.0
 10
366.0767185445124
 20
-28.33977046780204
 30
0.0
 10
366.0767185445124
 20
-28.33977046780204
 30
0.0
  0
HATCH
  5
8F
330
70
100
AcDbEntity
  8
Layer 1
 62
     7
440
 33554687
100
AcDbHatch
 10
0.0
 20
0.0
 30
0.0
210
0.0
220
0.0
230
1.0
  2
SOLID
 70
     1
 71
     1
 91
        2
 92
        1
 93
        1
 72
     4
 94
        3
 73
     0
 74
     0
 95
       26
 96
       22
 40
0.0
 40
0.0
 40
0.0
 40
0.0
 40
1.0
 40
1.0
 40
1.0
 40
2.0
 40
2.0
 40
2.0
 40
3.0
 40
3.0
 40
3.0
 40
4.0
 40
4.0
 40
4.0
 40
5.0
 40
5.0
 40
5.0
 40
6.0
 40
6.0
 40
6.0
 40
7.0
 40
7.0
 40
7.0
 40
7.0
 10
371.2901184033869
 20
-43.84172318498962
 10
358.0348475926266
 20
-45.54167063325572
 10
342.0861636910374
 20
-38.64144827143258
 10
336.2203706749659
 20
-35.74561908198247
 10
336.2203706749659
 20
-35.74561908198247
 10
342.7836435903694
 20
-17.24389590506708
 10
342.7836435903694
 20
-17.24389590506708
 10
342.7836435903694
 20
-17.24389590506708
 10
349.0747758985926
 20
-32.02412118054001
 10
349.0747758985926
 20
-32.02412118054001
 10
349.0747758985926
 20
-32.02412118054001
 10
360.7504222202195
 20
-18.2425145536766
 10
360.7504222202195
 20
-18.2425145536766
 10
360.7504222202195
 20
-18.2425145536766
 10
363.7371208033568
 20
-34.11631796319886
 10
363.7371208033568
 20
-34.11631796319886
 10
363.7371208033568
 20
-34.11631796319886
 10
375.1447503774369
 20
-30.31738628329801
 10
375.1447503774369
 20
-30.31738628329801
 10
373.2973301741314
 20
-35.37773801586584
 10
372.1391665662949
 20
-41.9202580837562
 10
371.2901184033869
 20
-43.84172318498962
 97
        1
330
8D
 92
        1
 93
        1
 72
     4
 94
        3
 73
     0
 74
     0
 95
       47
 96
       43
 40
0.0
 40
0.0
 40
0.0
 40
0.0
 40
1.0
 40
1.0
 40
1.0
 40
2.0
 40
2.0
 40
2.0
 40
3.0
 40
3.0
 40
3.0
 40
4.0
 40
4.0
 40
4.0
 40
5.0
 40
5.0
 40
5.0
 40
6.0
 40
6.0
 40
6.0
 40
7.0
 40
7.0
 40
7.0
 40
8.0
 40
8.0
 40
8.0
 40
9.0
 40
9.0
 40
9.0
 40
10.0
 40
10.0
 40
10.0
 40
11.0
 40
11.0
 40
11.0
 40
12.0
 40
12.0
 40
12.0
 40
13.0
 40
13.0
 40
13.0
 40
14.0
 40
14.0
 40
14.0
 40
14.0
 10
366.0767185445124
 20
-28.33977046780204
 10
366.0767185445124
 20
-28.33977046780204
 10
365.4498050753882
 20
-4.876176396025375
 10
365.4498050753882
 20
-4.876176396025375
 10
365.4498050753882
 20
-4.876176396025375
 10
350.3975524613675
 20
-25.40600621477693
 10
350.3975524613675
 20
-25.40600621477693
 10
350.3975524613675
 20
-25.40600621477693
 10
343.0216054929721
 20
-5.009457212296393
 10
343.0216054929721
 20
-5.009457212296393
 10
343.0216054929721
 20
-5.009457212296393
 10
332.6972785585344
 20
-37.01598138252484
 10
332.6972785585344
 20
-37.01598138252484
 10
332.6972785585344
 20
-37.01598138252484
 10
334.4101838639367
 20
-38.05075883106943
 10
334.4101838639367
 20
-38.05075883106943
 10
334.8556102030354
 20
-38.31986575697658
 10
340.9481940907814
 20
-41.9477572350445
 10
349.4446147377237
 20
-44.58136456812262
 10
349.4446147377237
 20
-44.58136456812262
 10
351.1339953620145
 20
-154.8761763585246
 10
351.1339953620145
 20
-154.8761763585246
 10
351.1339953620145
 20
-154.8761763585246
 10
353.3636723508721
 20
-154.8761763585246
 10
353.3636723508721
 20
-154.8761763585246
 10
353.3636723508721
 20
-154.8761763585246
 10
354.4393287534827
 20
-45.92697632776117
 10
354.4393287534827
 20
-45.92697632776117
 10
358.1056310223508
 20
-46.75990429934962
 10
362.0527639926302
 20
-47.31069035779204
 10
366.0816548710404
 20
-47.31069035779204
 10
368.2672134415519
 20
-47.31069035779204
 10
370.478687726335
 20
-47.14840862316624
 10
372.6802893580642
 20
-46.78126933760615
 10
374.4363875205922
 20
-46.48879199078993
 10
374.8029097653356
 20
-46.42770494999946
 10
381.7643642522083
 20
-26.86195771332054
 10
381.7643642522083
 20
-26.86195771332054
 10
383.5920391493983
 20
-21.72262475629595
 10
383.5920391493983
 20
-21.72262475629595
 10
383.5920391493983
 20
-21.72262475629595
 10
366.0767185445124
 20
-28.33977046780204
 10
366.0767185445124
 20
-28.33977046780204
 97
        1
330
8E
 75
     2
 76
     1
 98
        1
 10
0.0
 20
0.0
450
        0
451
        0
460
0.0
461
0.0
452
        0
462
0.0
453
        0
470

  0
SPLINE
  5
90
330
70
100
AcDbEntity
  8
Layer 1
100
AcDbSpline
210
0.0
220
0.0
230
1.0
 70
     9
 71
     3
 72
    47
 73
    43
 74
     0
 42
0.0000000001
 43
0.0000000001
 40
0.0
 40
0.0
 40
0.0
 40
0.0
 40
1.0
 40
1.0
 40
1.0
 40
2.0
 40
2.0
 40
2.0
 40
3.0
 40
3.0
 40
3.0
 40
4.0
 40
4.0
 40
4.0
 40
5.0
 40
5.0
 40
5.0
 40
6.0
 40
6.0
 40
6.0
 40
7.0
 40
7.0
 40
7.0
 40
8.0
 40
8.0
 40
8.0
 40
9.0
 40
9.0
 40
9.0
 40
10.0
 40
10.0
 40
10.0
 40
11.0
 40
11.0
 40
11.0
 40
12.0
 40
12.0
 40
12.0
 40
13.0
 40
13.0
 40
13.0
 40
14.0
 40
14.0
 40
14.0
 40
14.0
 10
270.3415677119681
 20
-30.45249072713569
 30
0.0
 10
267.3228906988732
 20
-34.03534948851964
 30
0.0
 10
258.8832945632641
 20
-33.34695876289105
 30
0.0
 10
254.6260955027665
 20
-32.44406352290312
 30
0.0
 10
251.3117782741233
 20
-31.74011911542587
 30
0.0
 10
248.0038949783064
 20
-30.68844168425013
 30
0.0
 10
245.1615397941049
 20
-28.83544898680851
 30
0.0
 10
243.8880019191387
 20
-27.95153485082896
 30
0.0
 10
242.5219036024508
 20
-26.89508708939567
 30
0.0
 10
242.2007080462355
 20
-25.3802466683284
 30
0.0
 10
242.1342240736949
 20
-25.04680459199819
 30
0.0
 10
242.2234973970887
 20
-24.66000697303844
 30
0.0
 10
242.2802603184739
 20
-24.31997061664619
 30
0.0
 10
242.5129842874733
 20
-23.17180423647705
 30
0.0
 10
242.9979144145907
 20
-21.99519626540221
 30
0.0
 10
243.8363901526959
 20
-21.25158596053051
 30
0.0
 10
245.2130713869303
 20
-19.88771246173538
 30
0.0
 10
247.8404610584701
 20
-20.15591325660007
 30
0.0
 10
248.7824208937194
 20
-21.80905316833079
 30
0.0
 10
248.7826012843589
 20
-21.80929368918412
 30
0.0
 10
250.2673565553563
 20
-23.59672441068944
 30
0.0
 10
250.2675569894005
 20
-23.59698497494746
 30
0.0
 10
250.2675569894005
 20
-23.59698497494746
 30
0.0
 10
250.6093371219795
 20
-21.28690243916064
 30
0.0
 10
250.6093371219795
 20
-21.28690243916064
 30
0.0
 10
250.878580173875
 20
-19.46710161947824
 30
0.0
 10
251.8521284145282
 20
-17.7918939194549
 30
0.0
 10
253.2982199583524
 20
-16.69604082488454
 30
0.0
 10
256.1686559521798
 20
-14.41732621705276
 30
0.0
 10
260.878916126729
 20
-14.84138452487398
 30
0.0
 10
263.1155997154415
 20
-17.81698826181867
 30
0.0
 10
264.2740483620904
 20
-19.27360259297605
 30
0.0
 10
264.7912283269581
 20
-21.22128033301126
 30
0.0
 10
264.4999976603871
 20
-23.05555249070219
 30
0.0
 10
264.4999976603871
 20
-23.05555249070219
 30
0.0
 10
264.3161996416363
 20
-24.21303905393746
 30
0.0
 10
264.3162196850403
 20
-24.21303905393746
 30
0.0
 10
265.1024823545692
 20
-24.17142894631202
 30
0.0
 10
266.1706154207935
 20
-24.04100651359474
 30
0.0
 10
266.9394403284552
 20
-24.21570482672878
 30
0.0
 10
270.1777128806386
 20
-24.81786882643906
 30
0.0
 10
272.1629519606013
 20
-27.37596844881553
 30
0.0
 10
270.3415677119681
 20
-30.45249072713569
 30
0.0
  0
SPLINE
  5
91
330
70
100
AcDbEntity
  8
Layer 1
100
AcDbSpline
210
0.0
220
0.0
230
1.0
 70
     9
 71
     3
 72
    68
 73
    64
 74
     0
 42
0.0000000001
 43
0.0000000001
 40
0.0
 40
0.0
 40
0.0
 40
0.0
 40
1.0
 40
1.0
 40
1.0
 40
2.0
 40
2.0
 40
2.0
 40
3.0
 40
3.0
 40
3.0
 40
4.0
 40
4.0
 40
4.0
 40
5.0
 40
5.0
 40
5.0
 40
6.0
 40
6.0
 40
6.0
 40
7.0
 40
7.0
 40
7.0
 40
8.0
 40
8.0
 40
8.0
 40
9.0
 40
9.0
 40
9.0
 40
10.0
 40
10.0
 40
10.0
 40
11.0
 40
11.0
 40
11.0
 40
12.0
 40
12.0
 40
12.0
 40
13.0
 40
13.0
 40
13.0
 40
14.0
 40
14.0
 40
14.0
 40
15.0
 40
15.0
 40
15.0
 40
16.0
 40
16.0
 40
16.0
 40
17.0
 40
17.0
 40
17.0
 40
18.0
 40
18.0
 40
18.0
 40
19.0
 40
19.0
 40
19.0
 40
20.0
 40
20.0
 40
20.0
 40
21.0
 40
21.0
 40
21.0
 40
21.0
 10
252.1382880997748
 20
-44.91601180795706
 30
0.0
 10
244.5306736392306
 20
-50.93382351481383
 30
0.0
 10
234.4323655254553
 20
-48.72379765401131
 30
0.0
 10
228.3202896874986
 20
-41.68176798006746
 30
0.0
 10
224.2698383438413
 20
-37.17923764917591
 30
0.0
 10
221.9090660382153
 20
-31.27878007533883
 30
0.0
 10
221.2398768940444
 20
-25.2805106878152
 30
0.0
 10
220.5852993917129
 20
-19.30597269115314
 30
0.0
 10
221.5476233258773
 20
-13.05373332591969
 30
0.0
 10
224.4727978572405
 20
-7.793041178530144
 30
0.0
 10
225.3879997475576
 20
-6.084381036489578
 30
0.0
 10
226.5182874109626
 20
-4.541459805796429
 30
0.0
 10
227.8110068239817
 20
-3.205045771089641
 30
0.0
 10
226.8222055525463
 20
-5.045892165437934
 30
0.0
 10
226.2179770821785
 20
-7.031071115187921
 30
0.0
 10
225.804180997432
 20
-9.080990261291429
 30
0.0
 10
225.2150251672056
 20
-11.48305198007146
 30
0.0
 10
225.0273587713968
 20
-14.03918734881257
 30
0.0
 10
225.1538326534383
 20
-16.50542804862232
 30
0.0
 10
225.2827518308219
 20
-18.96946397394306
 30
0.0
 10
225.6699904046799
 20
-21.39094775162941
 30
0.0
 10
226.2445345930663
 20
-23.75298279173485
 30
0.0
 10
226.2445345930663
 20
-23.75298279173485
 30
0.0
 10
226.9473164830859
 20
-23.64017851152407
 30
0.0
 10
226.9472964396813
 20
-23.64017851152407
 30
0.0
 10
226.6052757862492
 20
-18.91925524581084
 30
0.0
 10
226.5109314815318
 20
-14.17377880965391
 30
0.0
 10
227.892844044326
 20
-9.623885914061363
 30
0.0
 10
228.2000292608349
 20
-8.50975323463793
 30
0.0
 10
228.5019230185698
 20
-7.373392419686644
 30
0.0
 10
228.9569684296615
 20
-6.309548642013215
 30
0.0
 10
230.0513583557072
 20
-3.425002091457795
 30
0.0
 10
232.1002552881846
 20
-1.229407481855076
 30
0.0
 10
234.0902246115965
 20
1.062415512483023
 30
0.0
 10
237.9132434450283
 20
2.587818807692135
 30
0.0
 10
242.2419573725814
 20
2.667892208446002
 30
0.0
 10
246.4758860405191
 20
0.7391755290148218
 30
0.0
 10
252.3015817157802
 20
-1.901563049884051
 30
0.0
 10
256.453212165071
 20
-7.144316350296316
 30
0.0
 10
258.7706706736929
 20
-13.08171391852342
 30
0.0
 10
258.7393428325472
 20
-13.07650263336826
 30
0.0
 10
258.7087165105566
 20
-13.06836501116377
 30
0.0
 10
258.6773084957928
 20
-13.06351450728844
 30
0.0
 10
255.0809805666227
 20
-12.53046016610067
 30
0.0
 10
251.3184126409938
 20
-14.45037779098079
 30
0.0
 10
249.6038797814512
 20
-17.64521628573364
 30
0.0
 10
249.2976566483563
 20
-18.20973877189858
 30
0.0
 10
249.0543497618105
 20
-18.8064910524091
 30
0.0
 10
248.8755625941705
 20
-19.42020005307954
 30
0.0
 10
246.9386080755127
 20
-18.47403110289691
 30
0.0
 10
244.5181064246447
 20
-18.72455361504201
 30
0.0
 10
242.9180614912858
 20
-20.25863570437568
 30
0.0
 10
241.7087627275624
 20
-21.42295706852634
 30
0.0
 10
241.1291676012558
 20
-22.94623576286452
 30
0.0
 10
240.8824332925505
 20
-24.51375025081075
 30
0.0
 10
240.4934108556974
 20
-26.91687427002623
 30
0.0
 10
242.6674187187138
 20
-28.79079228170756
 30
0.0
 10
244.4040794967628
 20
-29.97154923750242
 30
0.0
 10
248.8607906050955
 20
-32.77832737881546
 30
0.0
 10
254.0505090573487
 20
-34.1944339895916
 30
0.0
 10
259.2769269831389
 20
-34.63218194264793
 30
0.0
 10
257.8606199383182
 20
-38.63388772669793
 30
0.0
 10
255.5187686064881
 20
-42.25402722034769
 30
0.0
 10
252.1382880997748
 20
-44.91601180795706
 30
0.0
  0
SPLINE
  5
92
330
70
100
AcDbEntity
  8
Layer 1
100
AcDbSpline
210
0.0
220
0.0
230
1.0
 70
     9
 71
     3
 72
    50
 73
    46
 74
     0
 42
0.0000000001
 43
0.0000000001
 40
0.0
 40
0.0
 40
0.0
 40
0.0
 40
1.0
 40
1.0
 40
1.0
 40
2.0
 40
2.0
 40
2.0
 40
3.0
 40
3.0
 40
3.0
 40
4.0
 40
4.0
 40
4.0
 40
5.0
 40
5.0
 40
5.0
 40
6.0
 40
6.0
 40
6.0
 40
7.0
 40
7.0
 40
7.0
 40
8.0
 40
8.0
 40
8.0
 40
9.0
 40
9.0
 40
9.0
 40
10.0
 40
10.0
 40
10.0
 40
11.0
 40
11.0
 40
11.0
 40
12.0
 40
12.0
 40
12.0
 40
13.0
 40
13.0
 40
13.0
 40
14.0
 40
14.0
 40
14.0
 40
15.0
 40
15.0
 40
15.0
 40
15.0
 10
254.1201398443869
 20
-51.23786191682436
 30
0.0
 10
254.028862180549
 20
-51.87800816795641
 30
0.0
 10
253.80605969675
 20
-52.26388379031189
 30
0.0
 10
253.274067655998
 20
-52.33870581910124
 30
0.0
 10
252.2794137104651
 20
-52.39697199581986
 30
0.0
 10
251.5735451361612
 20
-51.43238315695327
 30
0.0
 10
250.4906601242666
 20
-51.55729365344833
 30
0.0
 10
250.0756213484451
 20
-51.57851961875446
 30
0.0
 10
249.6494985699658
 20
-51.78486646750527
 30
0.0
 10
249.3891147028338
 20
-52.11764711148857
 30
0.0
 10
248.9343699428092
 20
-52.67517444950226
 30
0.0
 10
248.7118079798631
 20
-53.28950479571055
 30
0.0
 10
248.3772635162887
 20
-53.83793242810675
 30
0.0
 10
248.3452942862002
 20
-53.84017728940449
 30
0.0
 10
248.3113006722636
 20
-53.84182084856876
 30
0.0
 10
248.2755432387352
 20
-53.84164045792884
 30
0.0
 10
248.1177415155479
 20
-53.84492757625768
 30
0.0
 10
247.9007315756328
 20
-53.830817019529
 30
0.0
 10
247.7173143815659
 20
-53.81921188835606
 30
0.0
 10
247.0226099835379
 20
-53.55814654547317
 30
0.0
 10
246.2536247286401
 20
-52.74163837863878
 30
0.0
 10
245.3607912776829
 20
-52.6246049400902
 30
0.0
 10
244.7381228752259
 20
-52.535792614999
 30
0.0
 10
244.0960524572675
 20
-52.8690342572846
 30
0.0
 10
243.6909552100503
 20
-53.32051194238543
 30
0.0
 10
242.9102646069571
 20
-54.33534959619296
 30
0.0
 10
242.9002429047353
 20
-55.00111131820417
 30
0.0
 10
242.1033772742559
 20
-55.48746452703752
 30
0.0
 10
241.9550961681791
 20
-55.55096203231599
 30
0.0
 10
241.870492958021
 20
-55.57090521973768
 30
0.0
 10
241.7778924294899
 20
-55.55188402892025
 30
0.0
 10
241.422482781889
 20
-55.502877905055
 30
0.0
 10
240.8264320205344
 20
-54.54937306884564
 30
0.0
 10
240.8368746342494
 20
-54.05648571016397
 30
0.0
 10
240.871068682231
 20
-52.89452946773725
 30
0.0
 10
241.4204183112314
 20
-51.67312448772994
 30
0.0
 10
242.061907470461
 20
-50.6297049391852
 30
0.0
 10
245.4525499832275
 20
-50.6851249524729
 30
0.0
 10
248.8719748247749
 20
-49.80974930678641
 30
0.0
 10
252.0246019097688
 20
-47.85645941350717
 30
0.0
 10
252.1985987037469
 20
-48.02773030448086
 30
0.0
 10
252.3701902891917
 20
-48.20100553589895
 30
0.0
 10
252.5393766661038
 20
-48.37626506435711
 30
0.0
 10
253.2956343591795
 20
-49.18615890772508
 30
0.0
 10
254.2127804597273
 20
-50.16457769565829
 30
0.0
 10
254.1201398443869
 20
-51.23786191682436
 30
0.0
  0
SPLINE
  5
93
330
70
100
AcDbEntity
  8
Layer 1
100
AcDbSpline
210
0.0
220
0.0
230
1.0
 70
     9
 71
     3
 72
    14
 73
    10
 74
     0
 42
0.0000000001
 43
0.0000000001
 40
0.0
 40
0.0
 40
0.0
 40
0.0
 40
1.0
 40
1.0
 40
1.0
 40
2.0
 40
2.0
 40
2.0
 40
3.0
 40
3.0
 40
3.0
 40
3.0
 10
247.6943847268824
 20
-53.81776876323608
 30
0.0
 10
247.6832405940111
 20
-53.81712737429387
 30
0.0
 10
247.6662838738518
 20
-53.81618533428492
 30
0.0
 10
247.680554777816
 20
-53.8161252040715
 30
0.0
 10
247.6856257591403
 20
-53.81602498704936
 30
0.0
 10
247.6905764800378
 20
-53.81744806876497
 30
0.0
 10
247.6956274179574
 20
-53.81784893685386
 30
0.0
 10
247.6952265498689
 20
-53.81782889344917
 30
0.0
 10
247.6947855949709
 20
-53.81778880664045
 30
0.0
 10
247.6943847268824
 20
-53.81776876323608
 30
0.0
  0
SPLINE
  5
94
330
70
100
AcDbEntity
  8
Layer 1
100
AcDbSpline
210
0.0
220
0.0
230
1.0
 70
     9
 71
     3
 72
    80
 73
    76
 74
     0
 42
0.0000000001
 43
0.0000000001
 40
0.0
 40
0.0
 40
0.0
 40
0.0
 40
1.0
 40
1.0
 40
1.0
 40
2.0
 40
2.0
 40
2.0
 40
3.0
 40
3.0
 40
3.0
 40
4.0
 40
4.0
 40
4.0
 40
5.0
 40
5.0
 40
5.0
 40
6.0
 40
6.0
 40
6.0
 40
7.0
 40
7.0
 40
7.0
 40
8.0
 40
8.0
 40
8.0
 40
9.0
 40
9.0
 40
9.0
 40
10.0
 40
10.0
 40
10.0
 40
11.0
 40
11.0
 40
11.0
 40
12.0
 40
12.0
 40
12.0
 40
13.0
 40
13.0
 40
13.0
 40
14.0
 40
14.0
 40
14.0
 40
15.0
 40
15.0
 40
15.0
 40
16.0
 40
16.0
 40
16.0
 40
17.0
 40
17.0
 40
17.0
 40
18.0
 40
18.0
 40
18.0
 40
19.0
 40
19.0
 40
19.0
 40
20.0
 40
20.0
 40
20.0
 40
21.0
 40
21.0
 40
21.0
 40
22.0
 40
22.0
 40
22.0
 40
23.0
 40
23.0
 40
23.0
 40
24.0
 40
24.0
 40
24.0
 40
25.0
 40
25.0
 40
25.0
 40
25.0
 10
267.2978965735317
 20
-22.32709499958996
 30
0.0
 10
267.0220391981691
 20
-22.27572375400013
 30
0.0
 10
266.7421731419178
 20
-22.24199070432085
 30
0.0
 10
266.4612046984223
 20
-22.22208760370788
 30
0.0
 10
266.4634094729106
 20
-21.41038985394009
 30
0.0
 10
266.3582818166024
 20
-20.59859188714983
 30
0.0
 10
266.1515541431667
 20
-19.81531568488371
 30
0.0
 10
265.5971736196507
 20
-17.68993312104832
 30
0.0
 10
264.2255433233359
 20
-15.8285021503358
 30
0.0
 10
262.4292333736617
 20
-14.58386686457763
 30
0.0
 10
260.2228554124682
 20
-6.821557408534774
 30
0.0
 10
255.2620125955604
 20
0.292107392892028
 30
0.0
 10
247.7374980898409
 20
3.611315212219866
 30
0.0
 10
237.6057776208571
 20
8.08075388237435
 30
0.0
 10
226.9114989193441
 20
3.02684953863322
 30
0.0
 10
222.0435372386305
 20
-6.47268191078305
 30
0.0
 10
218.9404173626131
 20
-12.30366904481714
 30
0.0
 10
217.9932863290169
 20
-19.08072491201173
 30
0.0
 10
218.804803688145
 20
-25.57198187523949
 30
0.0
 10
219.6537220399652
 20
-32.03281295052149
 30
0.0
 10
222.2232063160663
 20
-38.343158145238
 30
0.0
 10
226.6480684547373
 20
-43.1965683143257
 30
0.0
 10
230.2238318509478
 20
-47.21685433429519
 30
0.0
 10
234.9214045504837
 20
-49.78589765549802
 30
0.0
 10
239.8207542025571
 20
-50.45536740733131
 30
0.0
 10
239.7624278956257
 20
-50.60004070060816
 30
0.0
 10
239.7056048440265
 20
-50.74531529601816
 30
0.0
 10
239.6519887371389
 20
-50.89293496974805
 30
0.0
 10
239.1349290326974
 20
-52.26751164651621
 30
0.0
 10
238.6260470372691
 20
-54.05484215099939
 30
0.0
 10
239.3868345397497
 20
-55.45896280591808
 30
0.0
 10
240.2653770433385
 20
-57.27108700169861
 30
0.0
 10
241.901540191505
 20
-57.81793120514365
 30
0.0
 10
243.2922918956593
 20
-56.81409738037555
 30
0.0
 10
243.2922918956593
 20
-56.81409738037555
 30
0.0
 10
244.8279173271351
 20
-157.0684604627623
 30
0.0
 10
244.8279173271351
 20
-157.0684604627623
 30
0.0
 10
244.8279173271351
 20
-157.0684604627623
 30
0.0
 10
246.8679951616571
 20
-157.0684604627623
 30
0.0
 10
246.8679951616571
 20
-157.0684604627623
 30
0.0
 10
246.8679951616571
 20
-157.0684604627623
 30
0.0
 10
247.8684817378826
 20
-55.73375788084514
 30
0.0
 10
247.8684817378826
 20
-55.73375788084514
 30
0.0
 10
248.0008483808309
 20
-55.74185541624058
 30
0.0
 10
248.1341570637878
 20
-55.74768804693359
 30
0.0
 10
248.2679868752601
 20
-55.75366098145812
 30
0.0
 10
248.7592507181822
 20
-55.78216270257723
 30
0.0
 10
249.4748804304502
 20
-55.64650894130043
 30
0.0
 10
249.8135738787443
 20
-55.16851383212053
 30
0.0
 10
250.2043200483798
 20
-54.68103819263831
 30
0.0
 10
250.4597732380183
 20
-54.08061796911443
 30
0.0
 10
250.7836546104287
 20
-53.5952869739078
 30
0.0
 10
250.9878768583083
 20
-53.6869655058346
 30
0.0
 10
251.3651538601573
 20
-53.88519477578561
 30
0.0
 10
251.5140563117716
 20
-53.96093880117921
 30
0.0
 10
252.5447082116858
 20
-54.46869836595861
 30
0.0
 10
253.950131687893
 20
-54.56983738478305
 30
0.0
 10
254.898525455969
 20
-53.76852211851717
 30
0.0
 10
256.0076472842815
 20
-52.83794693699194
 30
0.0
 10
256.1409359238338
 20
-51.22274918987362
 30
0.0
 10
255.621691488308
 20
-49.98671252462224
 30
0.0
 10
255.0973760714578
 20
-48.78210391753898
 30
0.0
 10
254.2590205937795
 20
-47.84790087980943
 30
0.0
 10
253.5328280073697
 20
-46.82482538677526
 30
0.0
 10
253.5462170015381
 20
-46.81472351093541
 30
0.0
 10
253.5599467335822
 20
-46.80582423936252
 30
0.0
 10
253.5733357277506
 20
-46.79568227671362
 30
0.0
 10
257.6100172525556
 20
-43.72180572778041
 30
0.0
 10
260.3770693662605
 20
-39.46316354216317
 30
0.0
 10
261.9970775304454
 20
-34.75514822891199
 30
0.0
 10
265.4576915681253
 20
-34.71277647191719
 30
0.0
 10
270.1775324899983
 20
-34.14685094744131
 30
0.0
 10
272.067485225235
 20
-31.01913781417156
 30
0.0
 10
274.2572271607397
 20
-26.88053557776937
 30
0.0
 10
271.552930946349
 20
-23.15111944309099
 30
0.0
 10
267.2978965735317
 20
-22.32709499958996
 30
0.0
  0
HATCH
  5
95
330
70
100
AcDbEntity
  8
Layer 1
 62
     7
440
 33554687
100
AcDbHatch
 10
0.0
 20
0.0
 30
0.0
210
0.0
220
0.0
230
1.0
  2
SOLID
 70
     1
 71
     1
 91
        5
 92
        1
 93
        1
 72
     4
 94
        3
 73
     0
 74
     0
 95
       47
 96
       43
 40
0.0
 40
0.0
 40
0.0
 40
0.0
 40
1.0
 40
1.0
 40
1.0
 40
2.0
 40
2.0
 40
2.0
 40
3.0
 40
3.0
 40
3.0
 40
4.0
 40
4.0
 40
4.0
 40
5.0
 40
5.0
 40
5.0
 40
6.0
 40
6.0
 40
6.0
 40
7.0
 40
7.0
 40
7.0
 40
8.0
 40
8.0
 40
8.0
 40
9.0
 40
9.0
 40
9.0
 40
10.0
 40
10.0
 40
10.0
 40
11.0
 40
11.0
 40
11.0
 40
12.0
 40
12.0
 40
12.0
 40
13.0
 40
13.0
 40
13.0
 40
14.0
 40
14.0
 40
14.0
 40
14.0
 10
270.3415677119681
 20
-30.45249072713569
 10
267.3228906988732
 20
-34.03534948851964
 10
258.8832945632641
 20
-33.34695876289105
 10
254.6260955027665
 20
-32.44406352290312
 10
251.3117782741233
 20
-31.74011911542587
 10
248.0038949783064
 20
-30.68844168425013
 10
245.1615397941049
 20
-28.83544898680851
 10
243.8880019191387
 20
-27.95153485082896
 10
242.5219036024508
 20
-26.89508708939567
 10
242.2007080462355
 20
-25.3802466683284
 10
242.1342240736949
 20
-25.04680459199819
 10
242.2234973970887
 20
-24.66000697303844
 10
242.2802603184739
 20
-24.31997061664619
 10
242.5129842874733
 20
-23.17180423647705
 10
242.9979144145907
 20
-21.99519626540221
 10
243.8363901526959
 20
-21.25158596053051
 10
245.2130713869303
 20
-19.88771246173538
 10
247.8404610584701
 20
-20.15591325660007
 10
248.7824208937194
 20
-21.80905316833079
 10
248.7826012843589
 20
-21.80929368918412
 10
250.2673565553563
 20
-23.59672441068944
 10
250.2675569894005
 20
-23.59698497494746
 10
250.2675569894005
 20
-23.59698497494746
 10
250.6093371219795
 20
-21.28690243916064
 10
250.6093371219795
 20
-21.28690243916064
 10
250.878580173875
 20
-19.46710161947824
 10
251.8521284145282
 20
-17.7918939194549
 10
253.2982199583524
 20
-16.69604082488454
 10
256.1686559521798
 20
-14.41732621705276
 10
260.878916126729
 20
-14.84138452487398
 10
263.1155997154415
 20
-17.81698826181867
 10
264.2740483620904
 20
-19.27360259297605
 10
264.7912283269581
 20
-21.22128033301126
 10
264.4999976603871
 20
-23.05555249070219
 10
264.4999976603871
 20
-23.05555249070219
 10
264.3161996416363
 20
-24.21303905393746
 10
264.3162196850403
 20
-24.21303905393746
 10
265.1024823545692
 20
-24.17142894631202
 10
266.1706154207935
 20
-24.04100651359474
 10
266.9394403284552
 20
-24.21570482672878
 10
270.1777128806386
 20
-24.81786882643906
 10
272.1629519606013
 20
-27.37596844881553
 10
270.3415677119681
 20
-30.45249072713569
 97
        1
330
90
 92
        1
 93
        1
 72
     4
 94
        3
 73
     0
 74
     0
 95
       68
 96
       64
 40
0.0
 40
0.0
 40
0.0
 40
0.0
 40
1.0
 40
1.0
 40
1.0
 40
2.0
 40
2.0
 40
2.0
 40
3.0
 40
3.0
 40
3.0
 40
4.0
 40
4.0
 40
4.0
 40
5.0
 40
5.0
 40
5.0
 40
6.0
 40
6.0
 40
6.0
 40
7.0
 40
7.0
 40
7.0
 40
8.0
 40
8.0
 40
8.0
 40
9.0
 40
9.0
 40
9.0
 40
10.0
 40
10.0
 40
10.0
 40
11.0
 40
11.0
 40
11.0
 40
12.0
 40
12.0
 40
12.0
 40
13.0
 40
13.0
 40
13.0
 40
14.0
 40
14.0
 40
14.0
 40
15.0
 40
15.0
 40
15.0
 40
16.0
 40
16.0
 40
16.0
 40
17.0
 40
17.0
 40
17.0
 40
18.0
 40
18.0
 40
18.0
 40
19.0
 40
19.0
 40
19.0
 40
20.0
 40
20.0
 40
20.0
 40
21.0
 40
21.0
 40
21.0
 40
21.0
 10
252.1382880997748
 20
-44.91601180795706
 10
244.5306736392306
 20
-50.93382351481383
 10
234.4323655254553
 20
-48.72379765401131
 10
228.3202896874986
 20
-41.68176798006746
 10
224.2698383438413
 20
-37.17923764917591
 10
221.9090660382153
 20
-31.27878007533883
 10
221.2398768940444
 20
-25.2805106878152
 10
220.5852993917129
 20
-19.30597269115314
 10
221.5476233258773
 20
-13.05373332591969
 10
224.4727978572405
 20
-7.793041178530144
 10
225.3879997475576
 20
-6.084381036489578
 10
226.5182874109626
 20
-4.541459805796429
 10
227.8110068239817
 20
-3.205045771089641
 10
226.8222055525463
 20
-5.045892165437934
 10
226.2179770821785
 20
-7.031071115187921
 10
225.804180997432
 20
-9.080990261291429
 10
225.2150251672056
 20
-11.48305198007146
 10
225.0273587713968
 20
-14.03918734881257
 10
225.1538326534383
 20
-16.50542804862232
 10
225.2827518308219
 20
-18.96946397394306
 10
225.6699904046799
 20
-21.39094775162941
 10
226.2445345930663
 20
-23.75298279173485
 10
226.2445345930663
 20
-23.75298279173485
 10
226.9473164830859
 20
-23.64017851152407
 10
226.9472964396813
 20
-23.64017851152407
 10
226.6052757862492
 20
-18.91925524581084
 10
226.5109314815318
 20
-14.17377880965391
 10
227.892844044326
 20
-9.623885914061363
 10
228.2000292608349
 20
-8.50975323463793
 10
228.5019230185698
 20
-7.373392419686644
 10
228.9569684296615
 20
-6.309548642013215
 10
230.0513583557072
 20
-3.425002091457795
 10
232.1002552881846
 20
-1.229407481855076
 10
234.0902246115965
 20
1.062415512483023
 10
237.9132434450283
 20
2.587818807692135
 10
242.2419573725814
 20
2.667892208446002
 10
246.4758860405191
 20
0.7391755290148218
 10
252.3015817157802
 20
-1.901563049884051
 10
256.453212165071
 20
-7.144316350296316
 10
258.7706706736929
 20
-13.08171391852342
 10
258.7393428325472
 20
-13.07650263336826
 10
258.7087165105566
 20
-13.06836501116377
 10
258.6773084957928
 20
-13.06351450728844
 10
255.0809805666227
 20
-12.53046016610067
 10
251.3184126409938
 20
-14.45037779098079
 10
249.6038797814512
 20
-17.64521628573364
 10
249.2976566483563
 20
-18.20973877189858
 10
249.0543497618105
 20
-18.8064910524091
 10
248.8755625941705
 20
-19.42020005307954
 10
246.9386080755127
 20
-18.47403110289691
 10
244.5181064246447
 20
-18.72455361504201
 10
242.9180614912858
 20
-20.25863570437568
 10
241.7087627275624
 20
-21.42295706852634
 10
241.1291676012558
 20
-22.94623576286452
 10
240.8824332925505
 20
-24.51375025081075
 10
240.4934108556974
 20
-26.91687427002623
 10
242.6674187187138
 20
-28.79079228170756
 10
244.4040794967628
 20
-29.97154923750242
 10
248.8607906050955
 20
-32.77832737881546
 10
254.0505090573487
 20
-34.1944339895916
 10
259.2769269831389
 20
-34.63218194264793
 10
257.8606199383182
 20
-38.63388772669793
 10
255.5187686064881
 20
-42.25402722034769
 10
252.1382880997748
 20
-44.91601180795706
 97
        1
330
91
 92
        1
 93
        1
 72
     4
 94
        3
 73
     0
 74
     0
 95
       50
 96
       46
 40
0.0
 40
0.0
 40
0.0
 40
0.0
 40
1.0
 40
1.0
 40
1.0
 40
2.0
 40
2.0
 40
2.0
 40
3.0
 40
3.0
 40
3.0
 40
4.0
 40
4.0
 40
4.0
 40
5.0
 40
5.0
 40
5.0
 40
6.0
 40
6.0
 40
6.0
 40
7.0
 40
7.0
 40
7.0
 40
8.0
 40
8.0
 40
8.0
 40
9.0
 40
9.0
 40
9.0
 40
10.0
 40
10.0
 40
10.0
 40
11.0
 40
11.0
 40
11.0
 40
12.0
 40
12.0
 40
12.0
 40
13.0
 40
13.0
 40
13.0
 40
14.0
 40
14.0
 40
14.0
 40
15.0
 40
15.0
 40
15.0
 40
15.0
 10
254.1201398443869
 20
-51.23786191682436
 10
254.028862180549
 20
-51.87800816795641
 10
253.80605969675
 20
-52.26388379031189
 10
253.274067655998
 20
-52.33870581910124
 10
252.2794137104651
 20
-52.39697199581986
 10
251.5735451361612
 20
-51.43238315695327
 10
250.4906601242666
 20
-51.55729365344833
 10
250.0756213484451
 20
-51.57851961875446
 10
249.6494985699658
 20
-51.78486646750527
 10
249.3891147028338
 20
-52.11764711148857
 10
248.9343699428092
 20
-52.67517444950226
 10
248.7118079798631
 20
-53.28950479571055
 10
248.3772635162887
 20
-53.83793242810675
 10
248.3452942862002
 20
-53.84017728940449
 10
248.3113006722636
 20
-53.84182084856876
 10
248.2755432387352
 20
-53.84164045792884
 10
248.1177415155479
 20
-53.84492757625768
 10
247.9007315756328
 20
-53.830817019529
 10
247.7173143815659
 20
-53.81921188835606
 10
247.0226099835379
 20
-53.55814654547317
 10
246.2536247286401
 20
-52.74163837863878
 10
245.3607912776829
 20
-52.6246049400902
 10
244.7381228752259
 20
-52.535792614999
 10
244.0960524572675
 20
-52.8690342572846
 10
243.6909552100503
 20
-53.32051194238543
 10
242.9102646069571
 20
-54.33534959619296
 10
242.9002429047353
 20
-55.00111131820417
 10
242.1033772742559
 20
-55.48746452703752
 10
241.9550961681791
 20
-55.55096203231599
 10
241.870492958021
 20
-55.57090521973768
 10
241.7778924294899
 20
-55.55188402892025
 10
241.422482781889
 20
-55.502877905055
 10
240.8264320205344
 20
-54.54937306884564
 10
240.8368746342494
 20
-54.05648571016397
 10
240.871068682231
 20
-52.89452946773725
 10
241.4204183112314
 20
-51.67312448772994
 10
242.061907470461
 20
-50.6297049391852
 10
245.4525499832275
 20
-50.6851249524729
 10
248.8719748247749
 20
-49.80974930678641
 10
252.0246019097688
 20
-47.85645941350717
 10
252.1985987037469
 20
-48.02773030448086
 10
252.3701902891917
 20
-48.20100553589895
 10
252.5393766661038
 20
-48.37626506435711
 10
253.2956343591795
 20
-49.18615890772508
 10
254.2127804597273
 20
-50.16457769565829
 10
254.1201398443869
 20
-51.23786191682436
 97
        1
330
92
 92
        1
 93
        1
 72
     4
 94
        3
 73
     0
 74
     0
 95
       14
 96
       10
 40
0.0
 40
0.0
 40
0.0
 40
0.0
 40
1.0
 40
1.0
 40
1.0
 40
2.0
 40
2.0
 40
2.0
 40
3.0
 40
3.0
 40
3.0
 40
3.0
 10
247.6943847268824
 20
-53.81776876323608
 10
247.6832405940111
 20
-53.81712737429387
 10
247.6662838738518
 20
-53.81618533428492
 10
247.680554777816
 20
-53.8161252040715
 10
247.6856257591403
 20
-53.81602498704936
 10
247.6905764800378
 20
-53.81744806876497
 10
247.6956274179574
 20
-53.81784893685386
 10
247.6952265498689
 20
-53.81782889344917
 10
247.6947855949709
 20
-53.81778880664045
 10
247.6943847268824
 20
-53.81776876323608
 97
        1
330
93
 92
        1
 93
        1
 72
     4
 94
        3
 73
     0
 74
     0
 95
       80
 96
       76
 40
0.0
 40
0.0
 40
0.0
 40
0.0
 40
1.0
 40
1.0
 40
1.0
 40
2.0
 40
2.0
 40
2.0
 40
3.0
 40
3.0
 40
3.0
 40
4.0
 40
4.0
 40
4.0
 40
5.0
 40
5.0
 40
5.0
 40
6.0
 40
6.0
 40
6.0
 40
7.0
 40
7.0
 40
7.0
 40
8.0
 40
8.0
 40
8.0
 40
9.0
 40
9.0
 40
9.0
 40
10.0
 40
10.0
 40
10.0
 40
11.0
 40
11.0
 40
11.0
 40
12.0
 40
12.0
 40
12.0
 40
13.0
 40
13.0
 40
13.0
 40
14.0
 40
14.0
 40
14.0
 40
15.0
 40
15.0
 40
15.0
 40
16.0
 40
16.0
 40
16.0
 40
17.0
 40
17.0
 40
17.0
 40
18.0
 40
18.0
 40
18.0
 40
19.0
 40
19.0
 40
19.0
 40
20.0
 40
20.0
 40
20.0
 40
21.0
 40
21.0
 40
21.0
 40
22.0
 40
22.0
 40
22.0
 40
23.0
 40
23.0
 40
23.0
 40
24.0
 40
24.0
 40
24.0
 40
25.0
 40
25.0
 40
25.0
 40
25.0
 10
267.2978965735317
 20
-22.32709499958996
 10
267.0220391981691
 20
-22.27572375400013
 10
266.7421731419178
 20
-22.24199070432085
 10
266.4612046984223
 20
-22.22208760370788
 10
266.4634094729106
 20
-21.41038985394009
 10
266.3582818166024
 20
-20.59859188714983
 10
266.1515541431667
 20
-19.81531568488371
 10
265.5971736196507
 20
-17.68993312104832
 10
264.2255433233359
 20
-15.8285021503358
 10
262.4292333736617
 20
-14.58386686457763
 10
260.2228554124682
 20
-6.821557408534774
 10
255.2620125955604
 20
0.292107392892028
 10
247.7374980898409
 20
3.611315212219866
 10
237.6057776208571
 20
8.08075388237435
 10
226.9114989193441
 20
3.02684953863322
 10
222.0435372386305
 20
-6.47268191078305
 10
218.9404173626131
 20
-12.30366904481714
 10
217.9932863290169
 20
-19.08072491201173
 10
218.804803688145
 20
-25.57198187523949
 10
219.6537220399652
 20
-32.03281295052149
 10
222.2232063160663
 20
-38.343158145238
 10
226.6480684547373
 20
-43.1965683143257
 10
230.2238318509478
 20
-47.21685433429519
 10
234.9214045504837
 20
-49.78589765549802
 10
239.8207542025571
 20
-50.45536740733131
 10
239.7624278956257
 20
-50.60004070060816
 10
239.7056048440265
 20
-50.74531529601816
 10
239.6519887371389
 20
-50.89293496974805
 10
239.1349290326974
 20
-52.26751164651621
 10
238.6260470372691
 20
-54.05484215099939
 10
239.3868345397497
 20
-55.45896280591808
 10
240.2653770433385
 20
-57.27108700169861
 10
241.901540191505
 20
-57.81793120514365
 10
243.2922918956593
 20
-56.81409738037555
 10
243.2922918956593
 20
-56.81409738037555
 10
244.8279173271351
 20
-157.0684604627623
 10
244.8279173271351
 20
-157.0684604627623
 10
244.8279173271351
 20
-157.0684604627623
 10
246.8679951616571
 20
-157.0684604627623
 10
246.8679951616571
 20
-157.0684604627623
 10
246.8679951616571
 20
-157.0684604627623
 10
247.8684817378826
 20
-55.73375788084514
 10
247.8684817378826
 20
-55.73375788084514
 10
248.0008483808309
 20
-55.74185541624058
 10
248.1341570637878
 20
-55.74768804693359
 10
248.2679868752601
 20
-55.75366098145812
 10
248.7592507181822
 20
-55.78216270257723
 10
249.4748804304502
 20
-55.64650894130043
 10
249.8135738787443
 20
-55.16851383212053
 10
250.2043200483798
 20
-54.68103819263831
 10
250.4597732380183
 20
-54.08061796911443
 10
250.7836546104287
 20
-53.5952869739078
 10
250.9878768583083
 20
-53.6869655058346
 10
251.3651538601573
 20
-53.88519477578561
 10
251.5140563117716
 20
-53.96093880117921
 10
252.5447082116858
 20
-54.46869836595861
 10
253.950131687893
 20
-54.56983738478305
 10
254.898525455969
 20
-53.76852211851717
 10
256.0076472842815
 20
-52.83794693699194
 10
256.1409359238338
 20
-51.22274918987362
 10
255.621691488308
 20
-49.98671252462224
 10
255.0973760714578
 20
-48.78210391753898
 10
254.2590205937795
 20
-47.84790087980943
 10
253.5328280073697
 20
-46.82482538677526
 10
253.5462170015381
 20
-46.81472351093541
 10
253.5599467335822
 20
-46.80582423936252
 10
253.5733357277506
 20
-46.79568227671362
 10
257.6100172525556
 20
-43.72180572778041
 10
260.3770693662605
 20
-39.46316354216317
 10
261.9970775304454
 20
-34.75514822891199
 10
265.4576915681253
 20
-34.71277647191719
 10
270.1775324899983
 20
-34.14685094744131
 10
272.067485225235
 20
-31.01913781417156
 10
274.2572271607397
 20
-26.88053557776937
 10
271.552930946349
 20
-23.15111944309099
 10
267.2978965735317
 20
-22.32709499958996
 97
        1
330
94
 75
     2
 76
     1
 98
        1
 10
0.0
 20
0.0
450
        0
451
        0
460
0.0
461
0.0
452
        0
462
0.0
453
        0
470

  0
SPLINE
  5
96
330
70
100
AcDbEntity
  8
Layer 1
100
AcDbSpline
210
0.0
220
0.0
230
1.0
 70
     9
 71
     3
 72
    11
 73
     7
 74
     0
 42
0.0000000001
 43
0.0000000001
 40
0.0
 40
0.0
 40
0.0
 40
0.0
 40
1.0
 40
1.0
 40
1.0
 40
2.0
 40
2.0
 40
2.0
 40
2.0
 10
300.9755274288612
 20
-27.84746159397545
 30
0.0
 10
300.9696707292408
 20
-27.86042866374245
 30
0.0
 10
300.9642069711286
 20
-27.87408805902368
 30
0.0
 10
300.9583315600075
 20
-27.88701770578985
 30
0.0
 10
301.0564733795278
 20
-27.81306985626729
 30
0.0
 10
300.8347046769618
 20
-28.02293804458818
 30
0.0
 10
300.9755274288612
 20
-27.84746159397545
 30
0.0
  0
SPLINE
  5
97
330
70
100
AcDbEntity
  8
Layer 1
100
AcDbSpline
210
0.0
220
0.0
230
1.0
 70
     9
 71
     3
 72
   140
 73
   136
 74
     0
 42
0.0000000001
 43
0.0000000001
 40
0.0
 40
0.0
 40
0.0
 40
0.0
 40
1.0
 40
1.0
 40
1.0
 40
2.0
 40
2.0
 40
2.0
 40
3.0
 40
3.0
 40
3.0
 40
4.0
 40
4.0
 40
4.0
 40
5.0
 40
5.0
 40
5.0
 40
6.0
 40
6.0
 40
6.0
 40
7.0
 40
7.0
 40
7.0
 40
8.0
 40
8.0
 40
8.0
 40
9.0
 40
9.0
 40
9.0
 40
10.0
 40
10.0
 40
10.0
 40
11.0
 40
11.0
 40
11.0
 40
12.0
 40
12.0
 40
12.0
 40
13.0
 40
13.0
 40
13.0
 40
14.0
 40
14.0
 40
14.0
 40
15.0
 40
15.0
 40
15.0
 40
16.0
 40
16.0
 40
16.0
 40
17.0
 40
17.0
 40
17.0
 40
18.0
 40
18.0
 40
18.0
 40
19.0
 40
19.0
 40
19.0
 40
20.0
 40
20.0
 40
20.0
 40
21.0
 40
21.0
 40
21.0
 40
22.0
 40
22.0
 40
22.0
 40
23.0
 40
23.0
 40
23.0
 40
24.0
 40
24.0
 40
24.0
 40
25.0
 40
25.0
 40
25.0
 40
26.0
 40
26.0
 40
26.0
 40
27.0
 40
27.0
 40
27.0
 40
28.0
 40
28.0
 40
28.0
 40
29.0
 40
29.0
 40
29.0
 40
30.0
 40
30.0
 40
30.0
 40
31.0
 40
31.0
 40
31.0
 40
32.0
 40
32.0
 40
32.0
 40
33.0
 40
33.0
 40
33.0
 40
34.0
 40
34.0
 40
34.0
 40
35.0
 40
35.0
 40
35.0
 40
36.0
 40
36.0
 40
36.0
 40
37.0
 40
37.0
 40
37.0
 40
38.0
 40
38.0
 40
38.0
 40
39.0
 40
39.0
 40
39.0
 40
40.0
 40
40.0
 40
40.0
 40
41.0
 40
41.0
 40
41.0
 40
42.0
 40
42.0
 40
42.0
 40
43.0
 40
43.0
 40
43.0
 40
44.0
 40
44.0
 40
44.0
 40
45.0
 40
45.0
 40
45.0
 40
45.0
 10
328.6541775667203
 20
-18.68713431137936
 30
0.0
 10
327.5103622596707
 20
-15.39093511501578
 30
0.0
 10
325.4212606646596
 20
-12.40738637858933
 30
0.0
 10
322.2352909170656
 20
-10.74425208984812
 30
0.0
 10
317.0526730978636
 20
-8.307266279674481
 30
0.0
 10
310.40747085105
 20
-9.9890559342999
 30
0.0
 10
307.0010609174174
 20
-14.54414616508193
 30
0.0
 10
305.1443561571907
 20
-16.84354631292269
 30
0.0
 10
304.0167450094754
 20
-19.67193928815484
 30
0.0
 10
303.0215177269852
 20
-22.44071742315933
 30
0.0
 10
302.319518367032
 20
-16.49115262616766
 30
0.0
 10
301.2788969846075
 20
-9.698185660811342
 30
0.0
 10
297.5992991453503
 20
-5.691267545315255
 30
0.0
 10
294.3848504941703
 20
-2.186435119656582
 30
0.0
 10
288.7397218084459
 20
-1.762563501429631
 30
0.0
 10
284.8518836814015
 20
-4.327854069745009
 30
0.0
 10
282.4599551641556
 20
-5.889384911394371
 30
0.0
 10
280.8904906463427
 20
-8.030448342975391
 30
0.0
 10
279.6245079532783
 20
-10.38594556897121
 30
0.0
 10
278.1724019658818
 20
-12.92202748518493
 30
0.0
 10
277.6792229502285
 20
-15.93830263578531
 30
0.0
 10
277.6825161742959
 20
-18.79908521818425
 30
0.0
 10
277.5297741966511
 20
-23.78047956224303
 30
0.0
 10
279.6621367805534
 20
-28.47137786282091
 30
0.0
 10
282.5791287101092
 20
-32.33021316426807
 30
0.0
 10
284.8438190247355
 20
-35.43388973316783
 30
0.0
 10
287.368019138205
 20
-38.22195942506969
 30
0.0
 10
289.4817263562228
 20
-41.36891569436019
 30
0.0
 10
292.359817076478
 20
-45.57271621690992
 30
0.0
 10
294.2179626222342
 20
-50.44651943375364
 30
0.0
 10
294.6658598069553
 20
-55.53584171203431
 30
0.0
 10
294.7041248252435
 20
-55.874894099015
 30
0.0
 10
294.7255120701838
 20
-56.2414898145625
 30
0.0
 10
294.7517268822232
 20
-56.58505167313602
 30
0.0
 10
294.7443545510716
 20
-56.70252247255455
 30
0.0
 10
294.7782410782693
 20
-56.81746721942106
 30
0.0
 10
295.1816797380753
 20
-56.92902518471772
 30
0.0
 10
295.1816797380753
 20
-56.92902518471772
 30
0.0
 10
295.5877192964351
 20
-56.92236389058051
 30
0.0
 10
295.5877192964351
 20
-56.92236389058051
 30
0.0
 10
295.9842721240992
 20
-56.79585543647607
 30
0.0
 10
296.0112541076552
 20
-56.67271505244089
 30
0.0
 10
295.9969772328611
 20
-56.552119432458
 30
0.0
 10
295.9969772328611
 20
-56.552119432458
 30
0.0
 10
296.0004949949333
 20
-56.18821817296579
 30
0.0
 10
296.0004014374317
 20
-56.18825559596662
 30
0.0
 10
296.0912831948025
 20
-46.76368450492987
 30
0.0
 10
292.191095477504
 20
-40.09978946923118
 30
0.0
 10
286.8243564945116
 20
-32.79489456483514
 30
0.0
 10
284.2424688253548
 20
-29.18310720297423
 30
0.0
 10
281.7099420942145
 20
-25.28224587166173
 30
0.0
 10
281.3809003599398
 20
-20.79906393686037
 30
0.0
 10
281.2159584840442
 20
-17.84442446852927
 30
0.0
 10
281.3954953302404
 20
-14.72551673831597
 30
0.0
 10
282.9211375141507
 20
-12.13623802650688
 30
0.0
 10
284.2468660279451
 20
-9.610260320500984
 30
0.0
 10
286.1504992311379
 20
-7.232608678048929
 30
0.0
 10
288.9008652497637
 20
-6.498406825933121
 30
0.0
 10
293.4927610018034
 20
-5.426499814864263
 30
0.0
 10
296.1359475462221
 20
-8.28307230967637
 30
0.0
 10
297.6862140646395
 20
-12.36100056913448
 30
0.0
 10
298.3639258970926
 20
-14.04535369931245
 30
0.0
 10
298.7863941527909
 20
-15.79850901640697
 30
0.0
 10
299.1440831941549
 20
-17.58839500875787
 30
0.0
 10
299.871736021136
 20
-21.09957063304749
 30
0.0
 10
300.2486230618954
 20
-24.94916245330433
 30
0.0
 10
300.7339432473878
 20
-28.5165287132506
 30
0.0
 10
300.7710668641518
 20
-28.71064181824698
 30
0.0
 10
300.7955415066557
 20
-28.87505977213217
 30
0.0
 10
300.8875459540501
 20
-29.09987844926085
 30
0.0
 10
301.2023669480318
 20
-28.81746577394646
 30
0.0
 10
300.1850975180876
 20
-30.18269426505425
 30
0.0
 10
303.158429775304
 20
-29.78219331080842
 30
0.0
 10
304.0507625171752
 20
-28.81349893586455
 30
0.0
 10
303.5290858864347
 20
-29.27131321579034
 30
0.0
 10
303.6845784546366
 20
-29.13812475604811
 30
0.0
 10
305.2932622772567
 20
-25.66987331364248
 30
0.0
 10
306.1262982744076
 20
-21.9201447709416
 30
0.0
 10
308.0025939755373
 20
-18.71514542745606
 30
0.0
 10
309.3206320626736
 20
-16.49706546028922
 30
0.0
 10
311.0407802930884
 20
-14.72489925880307
 30
0.0
 10
313.4513828877194
 20
-14.01300151514649
 30
0.0
 10
315.5516178254594
 20
-13.35484320059588
 30
0.0
 10
318.3723390855338
 20
-13.58656642136667
 30
0.0
 10
320.106876459745
 20
-14.69017071408808
 30
0.0
 10
322.5615820607834
 20
-16.45084805433763
 30
0.0
 10
323.8898740501304
 20
-19.47578662961626
 30
0.0
 10
324.0788227810206
 20
-22.47303218432478
 30
0.0
 10
324.1579911391511
 20
-24.02573119779232
 30
0.0
 10
324.1565316421209
 20
-25.8363121095693
 30
0.0
 10
323.8356106990138
 20
-27.38747678000504
 30
0.0
 10
322.7220893110881
 20
-32.42378937769481
 30
0.0
 10
318.9576909520848
 20
-36.36824850490464
 30
0.0
 10
315.0802938422557
 20
-39.63909361824597
 30
0.0
 10
310.6736980785311
 20
-43.27357803007433
 30
0.0
 10
306.076600529384
 20
-46.9496393957584
 30
0.0
 10
302.081283544127
 20
-51.09150485203286
 30
0.0
 10
299.2910807411814
 20
-54.03358890360546
 30
0.0
 10
296.0331465631059
 20
-57.0642719095024
 30
0.0
 10
294.6932721550201
 20
-61.04587336497707
 30
0.0
 10
294.6932721550201
 20
-61.04587336497707
 30
0.0
 10
294.6320855487604
 20
-61.21829984102711
 30
0.0
 10
294.6320855487604
 20
-61.21829984102711
 30
0.0
 10
294.6312061082423
 20
-61.22106914308406
 30
0.0
 10
294.6300647067188
 20
-61.22372617613883
 30
0.0
 10
294.6291852662007
 20
-61.22649547819579
 30
0.0
 10
294.6291852662007
 20
-61.22649547819579
 30
0.0
 10
294.6317300302527
 20
-61.2272439382111
 30
0.0
 10
294.632235240763
 20
-61.22739363021411
 30
0.0
 10
294.632235240763
 20
-61.22739363021411
 30
0.0
 10
296.0972895864263
 20
-156.8764670694734
 30
0.0
 10
296.0972895864263
 20
-156.8764670694734
 30
0.0
 10
296.0972895864263
 20
-156.8764670694734
 30
0.0
 10
298.0330073042499
 20
-157.0684604627623
 30
0.0
 10
298.0330073042499
 20
-157.0684604627623
 30
0.0
 10
298.0330073042499
 20
-157.0684604627623
 30
0.0
 10
298.9677777289952
 20
-62.38995254848576
 30
0.0
 10
298.9677777289952
 20
-62.38995254848576
 30
0.0
 10
298.9677777289952
 20
-62.38995254848576
 30
0.0
 10
298.9646773284614
 20
-62.19661192716896
 30
0.0
 10
298.9646773284614
 20
-62.19661192716896
 30
0.0
 10
299.9700049173214
 20
-58.85774929839173
 30
0.0
 10
302.0298600333851
 20
-57.52558685538287
 30
0.0
 10
303.751392914829
 20
-55.84057882269118
 30
0.0
 10
307.0913021760917
 20
-52.58051153357165
 30
0.0
 10
310.3674469517257
 20
-50.25549372632047
 30
0.0
 10
314.0400092668377
 20
-47.36967515640619
 30
0.0
 10
316.9953784836839
 20
-45.04941168563576
 30
0.0
 10
320.1640588049219
 20
-42.67220911919302
 30
0.0
 10
322.9839006244783
 20
-39.6484867914396
 30
0.0
 10
326.0837974703
 20
-36.34933117801525
 30
0.0
 10
328.5426008899227
 20
-32.23966821390408
 30
0.0
 10
329.2673160113436
 20
-27.64170993573947
 30
0.0
 10
329.62803631577
 20
-24.64135827196718
 30
0.0
 10
329.5924657535378
 20
-21.6185153847315
 30
0.0
 10
328.6541775667203
 20
-18.68713431137936
 30
0.0
  0
HATCH
  5
98
330
70
100
AcDbEntity
  8
Layer 1
 62
     7
440
 33554687
100
AcDbHatch
 10
0.0
 20
0.0
 30
0.0
210
0.0
220
0.0
230
1.0
  2
SOLID
 70
     1
 71
     1
 91
        2
 92
        1
 93
        1
 72
     4
 94
        3
 73
     0
 74
     0
 95
       11
 96
        7
 40
0.0
 40
0.0
 40
0.0
 40
0.0
 40
1.0
 40
1.0
 40
1.0
 40
2.0
 40
2.0
 40
2.0
 40
2.0
 10
300.9755274288612
 20
-27.84746159397545
 10
300.9696707292408
 20
-27.86042866374245
 10
300.9642069711286
 20
-27.87408805902368
 10
300.9583315600075
 20
-27.88701770578985
 10
301.0564733795278
 20
-27.81306985626729
 10
300.8347046769618
 20
-28.02293804458818
 10
300.9755274288612
 20
-27.84746159397545
 97
        1
330
96
 92
        1
 93
        1
 72
     4
 94
        3
 73
     0
 74
     0
 95
      140
 96
      136
 40
0.0
 40
0.0
 40
0.0
 40
0.0
 40
1.0
 40
1.0
 40
1.0
 40
2.0
 40
2.0
 40
2.0
 40
3.0
 40
3.0
 40
3.0
 40
4.0
 40
4.0
 40
4.0
 40
5.0
 40
5.0
 40
5.0
 40
6.0
 40
6.0
 40
6.0
 40
7.0
 40
7.0
 40
7.0
 40
8.0
 40
8.0
 40
8.0
 40
9.0
 40
9.0
 40
9.0
 40
10.0
 40
10.0
 40
10.0
 40
11.0
 40
11.0
 40
11.0
 40
12.0
 40
12.0
 40
12.0
 40
13.0
 40
13.0
 40
13.0
 40
14.0
 40
14.0
 40
14.0
 40
15.0
 40
15.0
 40
15.0
 40
16.0
 40
16.0
 40
16.0
 40
17.0
 40
17.0
 40
17.0
 40
18.0
 40
18.0
 40
18.0
 40
19.0
 40
19.0
 40
19.0
 40
20.0
 40
20.0
 40
20.0
 40
21.0
 40
21.0
 40
21.0
 40
22.0
 40
22.0
 40
22.0
 40
23.0
 40
23.0
 40
23.0
 40
24.0
 40
24.0
 40
24.0
 40
25.0
 40
25.0
 40
25.0
 40
26.0
 40
26.0
 40
26.0
 40
27.0
 40
27.0
 40
27.0
 40
28.0
 40
28.0
 40
28.0
 40
29.0
 40
29.0
 40
29.0
 40
30.0
 40
30.0
 40
30.0
 40
31.0
 40
31.0
 40
31.0
 40
32.0
 40
32.0
 40
32.0
 40
33.0
 40
33.0
 40
33.0
 40
34.0
 40
34.0
 40
34.0
 40
35.0
 40
35.0
 40
35.0
 40
36.0
 40
36.0
 40
36.0
 40
37.0
 40
37.0
 40
37.0
 40
38.0
 40
38.0
 40
38.0
 40
39.0
 40
39.0
 40
39.0
 40
40.0
 40
40.0
 40
40.0
 40
41.0
 40
41.0
 40
41.0
 40
42.0
 40
42.0
 40
42.0
 40
43.0
 40
43.0
 40
43.0
 40
44.0
 40
44.0
 40
44.0
 40
45.0
 40
45.0
 40
45.0
 40
45.0
 10
328.6541775667203
 20
-18.68713431137936
 10
327.5103622596707
 20
-15.39093511501578
 10
325.4212606646596
 20
-12.40738637858933
 10
322.2352909170656
 20
-10.74425208984812
 10
317.0526730978636
 20
-8.307266279674481
 10
310.40747085105
 20
-9.9890559342999
 10
307.0010609174174
 20
-14.54414616508193
 10
305.1443561571907
 20
-16.84354631292269
 10
304.0167450094754
 20
-19.67193928815484
 10
303.0215177269852
 20
-22.44071742315933
 10
302.319518367032
 20
-16.49115262616766
 10
301.2788969846075
 20
-9.698185660811342
 10
297.5992991453503
 20
-5.691267545315255
 10
294.3848504941703
 20
-2.186435119656582
 10
288.7397218084459
 20
-1.762563501429631
 10
284.8518836814015
 20
-4.327854069745009
 10
282.4599551641556
 20
-5.889384911394371
 10
280.8904906463427
 20
-8.030448342975391
 10
279.6245079532783
 20
-10.38594556897121
 10
278.1724019658818
 20
-12.92202748518493
 10
277.6792229502285
 20
-15.93830263578531
 10
277.6825161742959
 20
-18.79908521818425
 10
277.5297741966511
 20
-23.78047956224303
 10
279.6621367805534
 20
-28.47137786282091
 10
282.5791287101092
 20
-32.33021316426807
 10
284.8438190247355
 20
-35.43388973316783
 10
287.368019138205
 20
-38.22195942506969
 10
289.4817263562228
 20
-41.36891569436019
 10
292.359817076478
 20
-45.57271621690992
 10
294.2179626222342
 20
-50.44651943375364
 10
294.6658598069553
 20
-55.53584171203431
 10
294.7041248252435
 20
-55.874894099015
 10
294.7255120701838
 20
-56.2414898145625
 10
294.7517268822232
 20
-56.58505167313602
 10
294.7443545510716
 20
-56.70252247255455
 10
294.7782410782693
 20
-56.81746721942106
 10
295.1816797380753
 20
-56.92902518471772
 10
295.1816797380753
 20
-56.92902518471772
 10
295.5877192964351
 20
-56.92236389058051
 10
295.5877192964351
 20
-56.92236389058051
 10
295.9842721240992
 20
-56.79585543647607
 10
296.0112541076552
 20
-56.67271505244089
 10
295.9969772328611
 20
-56.552119432458
 10
295.9969772328611
 20
-56.552119432458
 10
296.0004949949333
 20
-56.18821817296579
 10
296.0004014374317
 20
-56.18825559596662
 10
296.0912831948025
 20
-46.76368450492987
 10
292.191095477504
 20
-40.09978946923118
 10
286.8243564945116
 20
-32.79489456483514
 10
284.2424688253548
 20
-29.18310720297423
 10
281.7099420942145
 20
-25.28224587166173
 10
281.3809003599398
 20
-20.79906393686037
 10
281.2159584840442
 20
-17.84442446852927
 10
281.3954953302404
 20
-14.72551673831597
 10
282.9211375141507
 20
-12.13623802650688
 10
284.2468660279451
 20
-9.610260320500984
 10
286.1504992311379
 20
-7.232608678048929
 10
288.9008652497637
 20
-6.498406825933121
 10
293.4927610018034
 20
-5.426499814864263
 10
296.1359475462221
 20
-8.28307230967637
 10
297.6862140646395
 20
-12.36100056913448
 10
298.3639258970926
 20
-14.04535369931245
 10
298.7863941527909
 20
-15.79850901640697
 10
299.1440831941549
 20
-17.58839500875787
 10
299.871736021136
 20
-21.09957063304749
 10
300.2486230618954
 20
-24.94916245330433
 10
300.7339432473878
 20
-28.5165287132506
 10
300.7710668641518
 20
-28.71064181824698
 10
300.7955415066557
 20
-28.87505977213217
 10
300.8875459540501
 20
-29.09987844926085
 10
301.2023669480318
 20
-28.81746577394646
 10
300.1850975180876
 20
-30.18269426505425
 10
303.158429775304
 20
-29.78219331080842
 10
304.0507625171752
 20
-28.81349893586455
 10
303.5290858864347
 20
-29.27131321579034
 10
303.6845784546366
 20
-29.13812475604811
 10
305.2932622772567
 20
-25.66987331364248
 10
306.1262982744076
 20
-21.9201447709416
 10
308.0025939755373
 20
-18.71514542745606
 10
309.3206320626736
 20
-16.49706546028922
 10
311.0407802930884
 20
-14.72489925880307
 10
313.4513828877194
 20
-14.01300151514649
 10
315.5516178254594
 20
-13.35484320059588
 10
318.3723390855338
 20
-13.58656642136667
 10
320.106876459745
 20
-14.69017071408808
 10
322.5615820607834
 20
-16.45084805433763
 10
323.8898740501304
 20
-19.47578662961626
 10
324.0788227810206
 20
-22.47303218432478
 10
324.1579911391511
 20
-24.02573119779232
 10
324.1565316421209
 20
-25.8363121095693
 10
323.8356106990138
 20
-27.38747678000504
 10
322.7220893110881
 20
-32.42378937769481
 10
318.9576909520848
 20
-36.36824850490464
 10
315.0802938422557
 20
-39.63909361824597
 10
310.6736980785311
 20
-43.27357803007433
 10
306.076600529384
 20
-46.9496393957584
 10
302.081283544127
 20
-51.09150485203286
 10
299.2910807411814
 20
-54.03358890360546
 10
296.0331465631059
 20
-57.0642719095024
 10
294.6932721550201
 20
-61.04587336497707
 10
294.6932721550201
 20
-61.04587336497707
 10
294.6320855487604
 20
-61.21829984102711
 10
294.6320855487604
 20
-61.21829984102711
 10
294.6312061082423
 20
-61.22106914308406
 10
294.6300647067188
 20
-61.22372617613883
 10
294.6291852662007
 20
-61.22649547819579
 10
294.6291852662007
 20
-61.22649547819579
 10
294.6317300302527
 20
-61.2272439382111
 10
294.632235240763
 20
-61.22739363021411
 10
294.632235240763
 20
-61.22739363021411
 10
296.0972895864263
 20
-156.8764670694734
 10
296.0972895864263
 20
-156.8764670694734
 10
296.0972895864263
 20
-156.8764670694734
 10
298.0330073042499
 20
-157.0684604627623
 10
298.0330073042499
 20
-157.0684604627623
 10
298.0330073042499
 20
-157.0684604627623
 10
298.9677777289952
 20
-62.38995254848576
 10
298.9677777289952
 20
-62.38995254848576
 10
298.9677777289952
 20
-62.38995254848576
 10
298.9646773284614
 20
-62.19661192716896
 10
298.9646773284614
 20
-62.19661192716896
 10
299.9700049173214
 20
-58.85774929839173
 10
302.0298600333851
 20
-57.52558685538287
 10
303.751392914829
 20
-55.84057882269118
 10
307.0913021760917
 20
-52.58051153357165
 10
310.3674469517257
 20
-50.25549372632047
 10
314.0400092668377
 20
-47.36967515640619
 10
316.9953784836839
 20
-45.04941168563576
 10
320.1640588049219
 20
-42.67220911919302
 10
322.9839006244783
 20
-39.6484867914396
 10
326.0837974703
 20
-36.34933117801525
 10
328.5426008899227
 20
-32.23966821390408
 10
329.2673160113436
 20
-27.64170993573947
 10
329.62803631577
 20
-24.64135827196718
 10
329.5924657535378
 20
-21.6185153847315
 10
328.6541775667203
 20
-18.68713431137936
 97
        1
330
97
 75
     2
 76
     1
 98
        1
 10
0.0
 20
0.0
450
        0
451
        0
460
0.0
461
0.0
452
        0
462
0.0
453
        0
470

  0
ENDSEC
  0
SECTION
  2
OBJECTS
  0
DICTIONARY
  5
C
330
0
100
AcDbDictionary
281
     1
  3
ACAD_COLOR
350
63
  3
ACAD_DETAILVIEWSTYLE
350
6A
  3
ACAD_GROUP
350
D
  3
ACAD_LAYOUT
350
62
  3
ACAD_MATERIAL
350
10
  3
ACAD_MLEADERSTYLE
350
66
  3
ACAD_MLINESTYLE
350
5F
  3
ACAD_PLOTSETTINGS
350
61
  3
ACAD_PLOTSTYLENAME
350
E
  3
ACAD_SCALELIST
350
42
  3
ACAD_SECTIONVIEWSTYLE
350
68
  3
ACAD_TABLESTYLE
350
64
  3
ACAD_VISUALSTYLE
350
29
  3
ACDB_RECOMPOSE_DATA
350
A2
  3
AcDbVariableDictionary
350
99
  0
DICTIONARY
  5
63
102
{ACAD_REACTORS
330
C
102
}
330
C
100
AcDbDictionary
281
     1
  0
DICTIONARY
  5
6A
102
{ACAD_REACTORS
330
C
102
}
330
C
100
AcDbDictionary
281
     1
  3
Imperial24
350
6B
  0
DICTIONARY
  5
D
102
{ACAD_REACTORS
330
C
102
}
330
C
100
AcDbDictionary
281
     1
  0
DICTIONARY
  5
62
102
{ACAD_REACTORS
330
C
102
}
330
C
100
AcDbDictionary
281
     1
  3
Layout1
350
6F
  3
Layout2
350
77
  3
Model
350
73
  0
DICTIONARY
  5
10
102
{ACAD_REACTORS
330
C
102
}
330
C
100
AcDbDictionary
281
     1
  3
ByBlock
350
19
  3
ByLayer
350
11
  3
Global
350
21
  0
DICTIONARY
  5
66
102
{ACAD_REACTORS
330
C
102
}
330
C
100
AcDbDictionary
281
     1
  3
Standard
350
67
  0
DICTIONARY
  5
5F
102
{ACAD_REACTORS
330
C
102
}
330
C
100
AcDbDictionary
281
     1
  3
Standard
350
60
  0
DICTIONARY
  5
61
102
{ACAD_REACTORS
330
C
102
}
330
C
100
AcDbDictionary
281
     1
  0
ACDBDICTIONARYWDFLT
  5
E
102
{ACAD_REACTORS
330
C
102
}
330
C
100
AcDbDictionary
281
     1
  3
Normal
350
F
100
AcDbDictionaryWithDefault
340
F
  0
DICTIONARY
  5
42
102
{ACAD_REACTORS
330
C
102
}
330
C
100
AcDbDictionary
281
     1
  3
A0
350
43
  3
A1
350
44
  3
A2
350
45
  3
A3
350
46
  3
A4
350
47
  3
A5
350
48
  3
A6
350
49
  3
A7
350
4A
  3
A8
350
4B
  3
A9
350
4C
  3
B0
350
4D
  3
B1
350
4E
  3
B2
350
4F
  3
B3
350
50
  3
B4
350
51
  3
B5
350
52
  3
B6
350
53
  0
DICTIONARY
  5
68
102
{ACAD_REACTORS
330
C
102
}
330
C
100
AcDbDictionary
281
     1
  3
Imperial24
350
69
  0
DICTIONARY
  5
64
102
{ACAD_REACTORS
330
C
102
}
330
C
100
AcDbDictionary
281
     1
  3
Standard
350
65
  0
DICTIONARY
  5
29
102
{ACAD_REACTORS
330
C
102
}
330
C
100
AcDbDictionary
281
     1
  3
2dWireframe
350
2F
  3
Basic
350
2E
  3
Brighten
350
35
  3
ColorChange
350
39
  3
Conceptual
350
32
  3
Dim
350
34
  3
EdgeColorOff
350
41
  3
Facepattern
350
38
  3
Flat
350
2A
  3
FlatWithEdges
350
2B
  3
Gouraud
350
2C
  3
GouraudWithEdges
350
2D
  3
Hidden
350
31
  3
JitterOff
350
3F
  3
Linepattern
350
37
  3
OverhangOff
350
40
  3
Realistic
350
33
  3
Shaded
350
3E
  3
Shaded with edges
350
3D
  3
Shades of Gray
350
3A
  3
Sketchy
350
3B
  3
Thicken
350
36
  3
Wireframe
350
30
  3
X-Ray
350
3C
  0
XRECORD
  5
A2
102
{ACAD_REACTORS
330
C
102
}
330
C
100
AcDbXrecord
280
     1
 90
        1
330
65
  0
DICTIONARY
  5
99
102
{ACAD_REACTORS
330
C
102
}
330
C
100
AcDbDictionary
281
     1
  3
CANNOSCALE
350
9E
  3
CMLEADERSTYLE
350
9B
  3
CTABLESTYLE
350
9A
  3
CVIEWDETAILSTYLE
350
9C
  3
CVIEWSECTIONSTYLE
350
9D
  3
XCLIPFRAME
350
9F
  0
ACDBDETAILVIEWSTYLE
  5
6B
102
{ACAD_XDICTIONARY
360
D8
102
}
102
{ACAD_REACTORS
330
6A
102
}
330
6A
100
AcDbModelDocViewStyle
 70
     0
  3
Imperial24
290
     0
100
AcDbDetailViewStyle
 70
     0
 71
     0
 90
        3
 71
     1
340
55
 62
   256
 40
0.24
340
0
 62
   256
 40
0.24
300

 40
0.36
280
     3
 71
     2
340
5D
 90
       25
 62
   256
 71
     3
340
55
 62
   256
 40
0.24
 90
        1
 40
0.75
 90
        1
300
%<\AcVar ViewType \f "%tc1">% %<\AcVar ViewDetailId>%\PSCALE %<\AcVar ViewScale \f "%sn">%
 71
     4
340
5D
 90
       25
 62
   256
340
5D
 90
       25
 62
   256
280
     0
  0
LAYOUT
  5
6F
102
{ACAD_REACTORS
330
62
102
}
330
62
100
AcDbPlotSettings
  1

  2

  4

  6

 40
0.0
 41
0.0
 42
0.0
 43
0.0
 44
0.0
 45
0.0
 46
0.0
 47
0.0
 48
0.0
 49
0.0
140
0.0
141
0.0
142
1.0
143
1.0
 70
   688
 72
     0
 73
     0
 74
     5
  7

 75
    16
147
1.0
 76
     0
 77
     2
 78
   300
148
0.0
149
0.0
100
AcDbLayout
  1
Layout1
 70
     1
 71
     1
 10
0.0
 20
0.0
 11
12.0
 21
9.0
 12
0.0
 22
0.0
 32
0.0
 14
0.0
 24
0.0
 34
0.0
 15
0.0
 25
0.0
 35
0.0
146
0.0
 13
0.0
 23
0.0
 33
0.0
 16
1.0
 26
0.0
 36
0.0
 17
0.0
 27
1.0
 37
0.0
 76
     0
330
6C
  0
LAYOUT
  5
77
102
{ACAD_REACTORS
330
62
102
}
330
62
100
AcDbPlotSettings
  1

  2

  4

  6

 40
0.0
 41
0.0
 42
0.0
 43
0.0
 44
0.0
 45
0.0
 46
0.0
 47
0.0
 48
0.0
 49
0.0
140
0.0
141
0.0
142
1.0
143
1.0
 70
   688
 72
     0
 73
     0
 74
     5
  7

 75
    16
147
1.0
 76
     0
 77
     2
 78
   300
148
0.0
149
0.0
100
AcDbLayout
  1
Layout2
 70
     1
 71
     2
 10
0.0
 20
0.0
 11
12.0
 21
9.0
 12
0.0
 22
0.0
 32
0.0
 14
0.0
 24
0.0
 34
0.0
 15
0.0
 25
0.0
 35
0.0
146
0.0
 13
0.0
 23
0.0
 33
0.0
 16
1.0
 26
0.0
 36
0.0
 17
0.0
 27
1.0
 37
0.0
 76
     0
330
74
  0
LAYOUT
  5
73
102
{ACAD_REACTORS
330
62
102
}
330
62
100
AcDbPlotSettings
  1

  2

  4

  6

 40
0.0
 41
0.0
 42
0.0
 43
0.0
 44
0.0
 45
0.0
 46
0.0
 47
0.0
 48
0.0
 49
0.0
140
0.0
141
0.0
142
1.0
143
1.0
 70
  1712
 72
     0
 73
     0
 74
     0
  7

 75
     0
147
1.0
 76
     0
 77
     2
 78
   300
148
0.0
149
0.0
100
AcDbLayout
  1
Model
 70
     1
 71
     0
 10
0.0
 20
0.0
 11
12.0
 21
9.0
 12
0.0
 22
0.0
 32
0.0
 14
0.0
 24
0.0
 34
0.0
 15
0.0
 25
0.0
 35
0.0
146
0.0
 13
0.0
 23
0.0
 33
0.0
 16
1.0
 26
0.0
 36
0.0
 17
0.0
 27
1.0
 37
0.0
 76
     0
330
70
  0
MATERIAL
  5
19
102
{ACAD_XDICTIONARY
360
1A
102
}
102
{ACAD_REACTORS
330
10
102
}
330
10
100
AcDbMaterial
  1
ByBlock
 72
     0
 43
0.0208333333333333
 43
0.0
 43
0.0
 43
0.0
 43
0.0
 43
0.0208333333333333
 43
0.0
 43
0.0
 43
0.0
 43
0.0
 43
1.0
 43
0.0
 43
0.0
 43
0.0
 43
0.0
 43
1.0
 77
     0
 47
0.0208333333333333
 47
0.0
 47
0.0
 47
0.0
 47
0.0
 47
0.0208333333333333
 47
0.0
 47
0.0
 47
0.0
 47
0.0
 47
1.0
 47
0.0
 47
0.0
 47
0.0
 47
0.0
 47
1.0
171
     0
 49
0.0208333333333333
 49
0.0
 49
0.0
 49
0.0
 49
0.0
 49
0.0208333333333333
 49
0.0
 49
0.0
 49
0.0
 49
0.0
 49
1.0
 49
0.0
 49
0.0
 49
0.0
 49
0.0
 49
1.0
175
     0
142
0.0208333333333333
142
0.0
142
0.0
142
0.0
142
0.0
142
0.0208333333333333
142
0.0
142
0.0
142
0.0
142
0.0
142
1.0
142
0.0
142
0.0
142
0.0
142
0.0
142
1.0
179
     0
144
0.0208333333333333
144
0.0
144
0.0
144
0.0
144
0.0
144
0.0208333333333333
144
0.0
144
0.0
144
0.0
144
0.0
144
1.0
144
0.0
144
0.0
144
0.0
144
0.0
144
1.0
147
0.0208333333333333
147
0.0
147
0.0
147
0.0
147
0.0
147
0.0208333333333333
147
0.0
147
0.0
147
0.0
147
0.0
147
1.0
147
0.0
147
0.0
147
0.0
147
0.0
147
1.0
  0
MATERIAL
  5
11
102
{ACAD_XDICTIONARY
360
12
102
}
102
{ACAD_REACTORS
330
10
102
}
330
10
100
AcDbMaterial
  1
ByLayer
 72
     0
 43
0.0208333333333333
 43
0.0
 43
0.0
 43
0.0
 43
0.0
 43
0.0208333333333333
 43
0.0
 43
0.0
 43
0.0
 43
0.0
 43
1.0
 43
0.0
 43
0.0
 43
0.0
 43
0.0
 43
1.0
 77
     0
 47
0.0208333333333333
 47
0.0
 47
0.0
 47
0.0
 47
0.0
 47
0.0208333333333333
 47
0.0
 47
0.0
 47
0.0
 47
0.0
 47
1.0
 47
0.0
 47
0.0
 47
0.0
 47
0.0
 47
1.0
171
     0
 49
0.0208333333333333
 49
0.0
 49
0.0
 49
0.0
 49
0.0
 49
0.0208333333333333
 49
0.0
 49
0.0
 49
0.0
 49
0.0
 49
1.0
 49
0.0
 49
0.0
 49
0.0
 49
0.0
 49
1.0
175
     0
142
0.0208333333333333
142
0.0
142
0.0
142
0.0
142
0.0
142
0.0208333333333333
142
0.0
142
0.0
142
0.0
142
0.0
142
1.0
142
0.0
142
0.0
142
0.0
142
0.0
142
1.0
179
     0
144
0.0208333333333333
144
0.0
144
0.0
144
0.0
144
0.0
144
0.0208333333333333
144
0.0
144
0.0
144
0.0
144
0.0
144
1.0
144
0.0
144
0.0
144
0.0
144
0.0
144
1.0
147
0.0208333333333333
147
0.0
147
0.0
147
0.0
147
0.0
147
0.0208333333333333
147
0.0
147
0.0
147
0.0
147
0.0
147
1.0
147
0.0
147
0.0
147
0.0
147
0.0
147
1.0
  0
MATERIAL
  5
21
102
{ACAD_XDICTIONARY
360
22
102
}
102
{ACAD_REACTORS
330
10
102
}
330
10
100
AcDbMaterial
  1
Global
 72
     0
 43
0.0208333333333333
 43
0.0
 43
0.0
 43
0.0
 43
0.0
 43
0.0208333333333333
 43
0.0
 43
0.0
 43
0.0
 43
0.0
 43
1.0
 43
0.0
 43
0.0
 43
0.0
 43
0.0
 43
1.0
 77
     0
 47
0.0208333333333333
 47
0.0
 47
0.0
 47
0.0
 47
0.0
 47
0.0208333333333333
 47
0.0
 47
0.0
 47
0.0
 47
0.0
 47
1.0
 47
0.0
 47
0.0
 47
0.0
 47
0.0
 47
1.0
171
     0
 49
0.0208333333333333
 49
0.0
 49
0.0
 49
0.0
 49
0.0
 49
0.0208333333333333
 49
0.0
 49
0.0
 49
0.0
 49
0.0
 49
1.0
 49
0.0
 49
0.0
 49
0.0
 49
0.0
 49
1.0
175
     0
142
0.0208333333333333
142
0.0
142
0.0
142
0.0
142
0.0
142
0.0208333333333333
142
0.0
142
0.0
142
0.0
142
0.0
142
1.0
142
0.0
142
0.0
142
0.0
142
0.0
142
1.0
179
     0
144
0.0208333333333333
144
0.0
144
0.0
144
0.0
144
0.0
144
0.0208333333333333
144
0.0
144
0.0
144
0.0
144
0.0
144
1.0
144
0.0
144
0.0
144
0.0
144
0.0
144
1.0
147
0.0208333333333333
147
0.0
147
0.0
147
0.0
147
0.0
147
0.0208333333333333
147
0.0
147
0.0
147
0.0
147
0.0
147
1.0
147
0.0
147
0.0
147
0.0
147
0.0
147
1.0
  0
MLEADERSTYLE
  5
67
102
{ACAD_XDICTIONARY
360
D4
102
}
102
{ACAD_REACTORS
330
66
102
}
330
66
100
AcDbMLeaderStyle
170
     2
171
     1
172
     0
 90
        2
 40
0.0
 41
0.0
173
     1
 91
-1056964608
340
5B
 92
       -2
290
     1
 42
0.09
291
     1
 43
0.36
  3
Standard
 44
0.18
300

342
55
174
     1
178
     6
175
     1
176
     0
 93
-1056964608
 45
0.18
292
     0
297
     0
 46
0.18
 94
-1056964608
 47
1.0
 49
1.0
140
1.0
293
     1
141
0.0
294
     1
177
     0
142
1.0
295
     0
296
     0
143
0.125
1001
ACAD_MLEADERVER
1070
     2
  0
MLINESTYLE
  5
60
102
{ACAD_REACTORS
330
5F
102
}
330
5F
100
AcDbMlineStyle
  2
STANDARD
 70
     0
  3

 62
   256
 51
90.0
 52
90.0
 71
     2
 49
0.5
 62
   256
  6
BYLAYER
 49
-0.5
 62
   256
  6
BYLAYER
  0
ACDBPLACEHOLDER
  5
F
102
{ACAD_REACTORS
330
E
102
}
330
E
  0
SCALE
  5
43
102
{ACAD_REACTORS
330
42
102
}
330
42
100
AcDbScale
 70
     0
300
1:1
140
1.0
141
1.0
290
     1
  0
SCALE
  5
44
102
{ACAD_REACTORS
330
42
102
}
330
42
100
AcDbScale
 70
     0
300
1/128" = 1'-0"
140
0.0078125
141
12.0
290
     0
  0
SCALE
  5
45
102
{ACAD_REACTORS
330
42
102
}
330
42
100
AcDbScale
 70
     0
300
1/64" = 1'-0"
140
0.015625
141
12.0
290
     0
  0
SCALE
  5
46
102
{ACAD_REACTORS
330
42
102
}
330
42
100
AcDbScale
 70
     0
300
1/32" = 1'-0"
140
0.03125
141
12.0
290
     0
  0
SCALE
  5
47
102
{ACAD_REACTORS
330
42
102
}
330
42
100
AcDbScale
 70
     0
300
1/16" = 1'-0"
140
0.0625
141
12.0
290
     0
  0
SCALE
  5
48
102
{ACAD_REACTORS
330
42
102
}
330
42
100
AcDbScale
 70
     0
300
3/32" = 1'-0"
140
0.09375
141
12.0
290
     0
  0
SCALE
  5
49
102
{ACAD_REACTORS
330
42
102
}
330
42
100
AcDbScale
 70
     0
300
1/8" = 1'-0"
140
0.125
141
12.0
290
     0
  0
SCALE
  5
4A
102
{ACAD_REACTORS
330
42
102
}
330
42
100
AcDbScale
 70
     0
300
3/16" = 1'-0"
140
0.1875
141
12.0
290
     0
  0
SCALE
  5
4B
102
{ACAD_REACTORS
330
42
102
}
330
42
100
AcDbScale
 70
     0
300
1/4" = 1'-0"
140
0.25
141
12.0
290
     0
  0
SCALE
  5
4C
102
{ACAD_REACTORS
330
42
102
}
330
42
100
AcDbScale
 70
     0
300
3/8" = 1'-0"
140
0.375
141
12.0
290
     0
  0
SCALE
  5
4D
102
{ACAD_REACTORS
330
42
102
}
330
42
100
AcDbScale
 70
     0
300
1/2" = 1'-0"
140
0.5
141
12.0
290
     0
  0
SCALE
  5
4E
102
{ACAD_REACTORS
330
42
102
}
330
42
100
AcDbScale
 70
     0
300
3/4" = 1'-0"
140
0.75
141
12.0
290
     0
  0
SCALE
  5
4F
102
{ACAD_REACTORS
330
42
102
}
330
42
100
AcDbScale
 70
     0
300
1" = 1'-0"
140
1.0
141
12.0
290
     0
  0
SCALE
  5
50
102
{ACAD_REACTORS
330
42
102
}
330
42
100
AcDbScale
 70
     0
300
1-1/2" = 1'-0"
140
1.5
141
12.0
290
     0
  0
SCALE
  5
51
102
{ACAD_REACTORS
330
42
102
}
330
42
100
AcDbScale
 70
     0
300
3" = 1'-0"
140
3.0
141
12.0
290
     0
  0
SCALE
  5
52
102
{ACAD_REACTORS
330
42
102
}
330
42
100
AcDbScale
 70
     0
300
6" = 1'-0"
140
6.0
141
12.0
290
     0
  0
SCALE
  5
53
102
{ACAD_REACTORS
330
42
102
}
330
42
100
AcDbScale
 70
     0
300
1'-0" = 1'-0"
140
12.0
141
12.0
290
     0
  0
ACDBSECTIONVIEWSTYLE
  5
69
102
{ACAD_XDICTIONARY
360
D6
102
}
102
{ACAD_REACTORS
330
68
102
}
330
68
100
AcDbModelDocViewStyle
 70
     0
  3
Imperial24
290
     0
100
AcDbSectionViewStyle
 70
     0
 71
     0
 90
       78
 71
     1
340
55
 62
   256
 40
0.24
340
0
340
0
 62
   256
 40
0.24
300
I, O, Q, S, X, Z
 40
0.48
 90
        3
 40
0.18
 90
        1
 71
     2
340
5D
 90
       25
 62
   256
340
5D
 90
       50
 62
   256
 40
0.24
 40
0.0
 40
0.24
 71
     3
340
55
 62
   256
 40
0.24
 90
        1
 40
0.75
 90
        1
300
%<\AcVar ViewType \f "%tc1">% %<\AcVar ViewSectionStartId>%-%<\AcVar ViewSectionEndId>%\PSCALE %<\AcVar ViewScale \f "%sn">%
 71
     4
 62
   256
 62
   257
300
ANSI31
 40
1.0
 90
        0
290
     0
290
     0
 90
        6
 40
0.0
 40
1.570796326794896
 40
0.2617993877991494
 40
1.308996938995747
 40
-0.2617993877991494
 40
1.832595714594046
  0
TABLESTYLE
  5
65
102
{ACAD_XDICTIONARY
360
A0
102
}
102
{ACAD_REACTORS
330
64
102
}
330
64
100
AcDbTableStyle
  3
Standard
 70
     0
 71
     0
 40
0.06
 41
0.06
280
     0
281
     0
  7
Standard
140
0.18
170
     2
 62
     0
 63
     7
283
     0
 90
      512
 91
        0
  1

274
    -2
284
     1
 64
     0
275
    -2
285
     1
 65
     0
276
    -2
286
     1
 66
     0
277
    -2
287
     1
 67
     0
278
    -2
288
     1
 68
     0
279
    -2
289
     1
 69
     0
  7
Standard
140
0.25
170
     5
 62
     0
 63
     7
283
     0
 90
      512
 91
        0
  1

274
    -2
284
     1
 64
     0
275
    -2
285
     1
 65
     0
276
    -2
286
     1
 66
     0
277
    -2
287
     1
 67
     0
278
    -2
288
     1
 68
     0
279
    -2
289
     1
 69
     0
  7
Standard
140
0.18
170
     5
 62
     0
 63
     7
283
     0
 90
      512
 91
        0
  1

274
    -2
284
     1
 64
     0
275
    -2
285
     1
 65
     0
276
    -2
286
     1
 66
     0
277
    -2
287
     1
 67
     0
278
    -2
288
     1
 68
     0
279
    -2
289
     1
 69
     0
  0
VISUALSTYLE
  5
2F
102
{ACAD_XDICTIONARY
360
AD
102
}
102
{ACAD_REACTORS
330
29
102
}
330
29
100
AcDbVisualStyle
  2
2dWireframe
 70
     4
 71
     0
 72
     2
 73
     0
 90
        0
 40
-0.6
 41
-30.0
 62
     5
 63
     7
421
 16777215
 74
     1
 91
        4
 64
     7
 65
   257
 75
     1
175
     1
 42
1.0
 92
        0
 66
   257
 43
1.0
 76
     1
 77
     6
 78
     2
 67
     7
 79
     5
170
     0
171
     0
290
     0
174
     0
 93
        1
 44
0.0
173
     0
291
     0
 45
0.0
1001
ACAD
1000
AcDbSavedByObjectVersion
1070
     0
  0
VISUALSTYLE
  5
2E
102
{ACAD_XDICTIONARY
360
AB
102
}
102
{ACAD_REACTORS
330
29
102
}
330
29
100
AcDbVisualStyle
  2
Basic
 70
     7
 71
     1
 72
     0
 73
     1
 90
        0
 40
-0.6
 41
-30.0
 62
     5
 63
     7
421
 16777215
 74
     0
 91
        4
 64
     7
 65
   257
 75
     1
175
     1
 42
1.0
 92
        8
 66
     7
 43
1.0
 76
     1
 77
     6
 78
     2
 67
     7
 79
     5
170
     0
171
     0
290
     0
174
     0
 93
        1
 44
0.0
173
     0
291
     1
 45
0.0
1001
ACAD
1000
AcDbSavedByObjectVersion
1070
     0
  0
VISUALSTYLE
  5
35
102
{ACAD_XDICTIONARY
360
B9
102
}
102
{ACAD_REACTORS
330
29
102
}
330
29
100
AcDbVisualStyle
  2
Brighten
 70
    12
 71
     2
 72
     2
 73
     0
 90
        0
 40
-0.6
 41
-30.0
 62
     5
 63
     7
421
 16777215
 74
     1
 91
        4
 64
     7
 65
   257
 75
     1
175
     1
 42
1.0
 92
        8
 66
     7
 43
1.0
 76
     1
 77
     6
 78
     2
 67
     7
 79
     5
170
     0
171
     0
290
     0
174
     0
 93
        1
 44
50.0
173
     0
291
     1
 45
0.0
1001
ACAD
1000
AcDbSavedByObjectVersion
1070
     0
  0
VISUALSTYLE
  5
39
102
{ACAD_XDICTIONARY
360
C1
102
}
102
{ACAD_REACTORS
330
29
102
}
330
29
100
AcDbVisualStyle
  2
ColorChange
 70
    16
 71
     2
 72
     2
 73
     3
 90
        0
 40
-0.6
 41
-30.0
 62
     5
 63
     8
421
  8421504
 74
     1
 91
        4
 64
     7
 65
   257
 75
     1
175
     1
 42
1.0
 92
        8
 66
     8
424
  8421504
 43
1.0
 76
     1
 77
     6
 78
     2
 67
     7
 79
     5
170
     0
171
     0
290
     0
174
     0
 93
        1
 44
0.0
173
     0
291
     1
 45
0.0
1001
ACAD
1000
AcDbSavedByObjectVersion
1070
     0
  0
VISUALSTYLE
  5
32
102
{ACAD_XDICTIONARY
360
B3
102
}
102
{ACAD_REACTORS
330
29
102
}
330
29
100
AcDbVisualStyle
  2
Conceptual
 70
     9
 71
     3
 72
     2
 73
     0
 90
        0
 40
-0.6
 41
-30.0
 62
     5
 63
     7
421
 16777215
 74
     2
 91
        2
 64
     7
 65
   257
 75
     1
175
     1
 42
179.0
 92
        8
 66
     7
 43
1.0
 76
     1
 77
     6
 78
     2
 67
     7
 79
     3
170
     0
171
     0
290
     0
174
     0
 93
        1
 44
0.0
173
     0
291
     0
 45
0.0
1001
ACAD
1000
AcDbSavedByObjectVersion
1070
     0
  0
VISUALSTYLE
  5
34
102
{ACAD_XDICTIONARY
360
B7
102
}
102
{ACAD_REACTORS
330
29
102
}
330
29
100
AcDbVisualStyle
  2
Dim
 70
    11
 71
     2
 72
     2
 73
     0
 90
        0
 40
-0.6
 41
-30.0
 62
     5
 63
     7
421
 16777215
 74
     1
 91
        4
 64
     7
 65
   257
 75
     1
175
     1
 42
1.0
 92
        8
 66
     7
 43
1.0
 76
     1
 77
     6
 78
     2
 67
     7
 79
     5
170
     0
171
     0
290
     0
174
     0
 93
        1
 44
-50.0
173
     0
291
     1
 45
0.0
1001
ACAD
1000
AcDbSavedByObjectVersion
1070
     0
  0
VISUALSTYLE
  5
41
102
{ACAD_XDICTIONARY
360
D1
102
}
102
{ACAD_REACTORS
330
29
102
}
330
29
100
AcDbVisualStyle
  2
EdgeColorOff
 70
    22
 71
     2
 72
     2
 73
     0
 90
        0
 40
-0.6
 41
-30.0
 62
     5
 63
     7
421
 16777215
 74
     1
 91
        4
 64
     7
 65
   257
 75
     1
175
     1
 42
1.0
 92
        8
 66
     7
 43
1.0
 76
     1
 77
     6
 78
     2
 67
     7
 79
     5
170
     0
171
     0
290
     0
174
     0
 93
        1
 44
0.0
173
     0
291
     1
 45
0.0
1001
ACAD
1000
AcDbSavedByObjectVersion
1070
     0
  0
VISUALSTYLE
  5
38
102
{ACAD_XDICTIONARY
360
BF
102
}
102
{ACAD_REACTORS
330
29
102
}
330
29
100
AcDbVisualStyle
  2
Facepattern
 70
    15
 71
     2
 72
     2
 73
     0
 90
        0
 40
-0.6
 41
-30.0
 62
     5
 63
     7
421
 16777215
 74
     1
 91
        4
 64
     7
 65
   257
 75
     1
175
     1
 42
1.0
 92
        8
 66
     7
 43
1.0
 76
     1
 77
     6
 78
     2
 67
     7
 79
     5
170
     0
171
     0
290
     0
174
     0
 93
        1
 44
0.0
173
     0
291
     1
 45
0.0
1001
ACAD
1000
AcDbSavedByObjectVersion
1070
     0
  0
VISUALSTYLE
  5
2A
102
{ACAD_XDICTIONARY
360
A3
102
}
102
{ACAD_REACTORS
330
29
102
}
330
29
100
AcDbVisualStyle
  2
Flat
 70
     0
 71
     2
 72
     1
 73
     1
 90
        2
 40
-0.6
 41
30.0
 62
     5
 63
     7
421
 16777215
 74
     0
 91
        0
 64
     7
 65
   257
 75
     1
175
     1
 42
1.0
 92
        8
 66
     7
 43
1.0
 76
     1
 77
     6
 78
     2
 67
     7
 79
     5
170
     0
171
     0
290
     0
174
     0
 93
       13
 44
0.0
173
     0
291
     1
 45
0.0
1001
ACAD
1000
AcDbSavedByObjectVersion
1070
     0
  0
VISUALSTYLE
  5
2B
102
{ACAD_XDICTIONARY
360
A5
102
}
102
{ACAD_REACTORS
330
29
102
}
330
29
100
AcDbVisualStyle
  2
FlatWithEdges
 70
     1
 71
     2
 72
     1
 73
     1
 90
        2
 40
-0.6
 41
30.0
 62
     5
 63
     7
421
 16777215
 74
     1
 91
        0
 64
     7
 65
   257
 75
     1
175
     1
 42
1.0
 92
        0
 66
   257
 43
1.0
 76
     1
 77
     6
 78
     2
 67
     7
 79
     5
170
     0
171
     0
290
     0
174
     0
 93
       13
 44
0.0
173
     0
291
     1
 45
0.0
1001
ACAD
1000
AcDbSavedByObjectVersion
1070
     0
  0
VISUALSTYLE
  5
2C
102
{ACAD_XDICTIONARY
360
A7
102
}
102
{ACAD_REACTORS
330
29
102
}
330
29
100
AcDbVisualStyle
  2
Gouraud
 70
     2
 71
     2
 72
     2
 73
     1
 90
        2
 40
-0.6
 41
30.0
 62
     5
 63
     7
421
 16777215
 74
     0
 91
        0
 64
     7
 65
   257
 75
     1
175
     1
 42
1.0
 92
        0
 66
     7
 43
1.0
 76
     1
 77
     6
 78
     2
 67
     7
 79
     5
170
     0
171
     0
290
     0
174
     0
 93
       13
 44
0.0
173
     0
291
     1
 45
0.0
1001
ACAD
1000
AcDbSavedByObjectVersion
1070
     0
  0
VISUALSTYLE
  5
2D
102
{ACAD_XDICTIONARY
360
A9
102
}
102
{ACAD_REACTORS
330
29
102
}
330
29
100
AcDbVisualStyle
  2
GouraudWithEdges
 70
     3
 71
     2
 72
     2
 73
     1
 90
        2
 40
-0.6
 41
30.0
 62
     5
 63
     7
421
 16777215
 74
     1
 91
        0
 64
     7
 65
   257
 75
     1
175
     1
 42
1.0
 92
        0
 66
   257
 43
1.0
 76
     1
 77
     6
 78
     2
 67
     7
 79
     5
170
     0
171
     0
290
     0
174
     0
 93
       13
 44
0.0
173
     0
291
     1
 45
0.0
1001
ACAD
1000
AcDbSavedByObjectVersion
1070
     0
  0
VISUALSTYLE
  5
31
102
{ACAD_XDICTIONARY
360
B1
102
}
102
{ACAD_REACTORS
330
29
102
}
330
29
100
AcDbVisualStyle
  2
Hidden
 70
     6
 71
     1
 72
     2
 73
     2
 90
        0
 40
-0.6
 41
-30.0
 62
     5
 63
     7
421
 16777215
 74
     2
 91
        2
 64
     7
 65
   257
 75
     2
175
     1
 42
40.0
 92
        0
 66
   257
 43
1.0
 76
     1
 77
     6
 78
     2
 67
     7
 79
     3
170
     0
171
     0
290
     0
174
     0
 93
        1
 44
0.0
173
     0
291
     0
 45
0.0
1001
ACAD
1000
AcDbSavedByObjectVersion
1070
     0
  0
VISUALSTYLE
  5
3F
102
{ACAD_XDICTIONARY
360
CD
102
}
102
{ACAD_REACTORS
330
29
102
}
330
29
100
AcDbVisualStyle
  2
JitterOff
 70
    20
 71
     2
 72
     2
 73
     0
 90
        0
 40
-0.6
 41
-30.0
 62
     5
 63
     7
421
 16777215
 74
     1
 91
        4
 64
     7
 65
   257
 75
     1
175
     1
 42
1.0
 92
       10
 66
     7
 43
1.0
 76
     1
 77
     6
 78
     2
 67
     7
 79
     5
170
     0
171
     0
290
     0
174
     0
 93
        1
 44
0.0
173
     0
291
     1
 45
0.0
1001
ACAD
1000
AcDbSavedByObjectVersion
1070
     0
  0
VISUALSTYLE
  5
37
102
{ACAD_XDICTIONARY
360
BD
102
}
102
{ACAD_REACTORS
330
29
102
}
330
29
100
AcDbVisualStyle
  2
Linepattern
 70
    14
 71
     2
 72
     2
 73
     0
 90
        0
 40
-0.6
 41
-30.0
 62
     5
 63
     7
421
 16777215
 74
     1
 91
        4
 64
     7
 65
   257
 75
     7
175
     7
 42
1.0
 92
        8
 66
     7
 43
1.0
 76
     1
 77
     6
 78
     2
 67
     7
 79
     5
170
     0
171
     0
290
     0
174
     0
 93
        1
 44
0.0
173
     0
291
     1
 45
0.0
1001
ACAD
1000
AcDbSavedByObjectVersion
1070
     0
  0
VISUALSTYLE
  5
40
102
{ACAD_XDICTIONARY
360
CF
102
}
102
{ACAD_REACTORS
330
29
102
}
330
29
100
AcDbVisualStyle
  2
OverhangOff
 70
    21
 71
     2
 72
     2
 73
     0
 90
        0
 40
-0.6
 41
-30.0
 62
     5
 63
     7
421
 16777215
 74
     1
 91
        4
 64
     7
 65
   257
 75
     1
175
     1
 42
1.0
 92
        9
 66
     7
 43
1.0
 76
     1
 77
     6
 78
     2
 67
     7
 79
     5
170
     0
171
     0
290
     0
174
     0
 93
        1
 44
0.0
173
     0
291
     1
 45
0.0
1001
ACAD
1000
AcDbSavedByObjectVersion
1070
     0
  0
VISUALSTYLE
  5
33
102
{ACAD_XDICTIONARY
360
B5
102
}
102
{ACAD_REACTORS
330
29
102
}
330
29
100
AcDbVisualStyle
  2
Realistic
 70
     8
 71
     2
 72
     3
 73
     0
 90
        2
 40
-0.6
 41
30.0
 62
     5
 63
     7
421
 16777215
 74
     0
 91
        0
 64
     7
 65
   257
 75
     1
175
     1
 42
1.0
 92
        8
 66
   257
 43
1.0
 76
     1
 77
     6
 78
     2
 67
     7
 79
     3
170
     0
171
     0
290
     0
174
     0
 93
       13
 44
0.0
173
     0
291
     0
 45
0.0
1001
ACAD
1000
AcDbSavedByObjectVersion
1070
     0
  0
VISUALSTYLE
  5
3E
102
{ACAD_XDICTIONARY
360
CB
102
}
102
{ACAD_REACTORS
330
29
102
}
330
29
100
AcDbVisualStyle
  2
Shaded
 70
    27
 71
     2
 72
     2
 73
     1
 90
        2
 40
-0.6
 41
30.0
 62
     5
 63
     7
421
 16777215
 74
     0
 91
        4
 64
     7
 65
   257
 75
     1
175
     1
 42
1.0
 92
        8
 66
   257
 43
1.0
 76
     1
 77
     6
 78
     2
 67
     8
425
  7895160
 79
     3
170
     0
171
     0
290
     0
174
     0
 93
        5
 44
0.0
173
     0
291
     0
 45
0.0
1001
ACAD
1000
AcDbSavedByObjectVersion
1070
     0
  0
VISUALSTYLE
  5
3D
102
{ACAD_XDICTIONARY
360
C9
102
}
102
{ACAD_REACTORS
330
29
102
}
330
29
100
AcDbVisualStyle
  2
Shaded with edges
 70
    26
 71
     2
 72
     2
 73
     1
 90
        2
 40
-0.6
 41
30.0
 62
     5
 63
     7
421
 16777215
 74
     1
 91
        2
 64
     7
 65
   257
 75
     2
175
     1
 42
1.0
 92
        8
 66
   257
 43
1.0
 76
     1
 77
     6
 78
     2
 67
     7
 79
     3
170
     0
171
     0
290
     0
174
     0
 93
        5
 44
0.0
173
     0
291
     0
 45
0.0
1001
ACAD
1000
AcDbSavedByObjectVersion
1070
     0
  0
VISUALSTYLE
  5
3A
102
{ACAD_XDICTIONARY
360
C3
102
}
102
{ACAD_REACTORS
330
29
102
}
330
29
100
AcDbVisualStyle
  2
Shades of Gray
 70
    23
 71
     2
 72
     2
 73
     3
 90
        0
 40
-0.6
 41
-30.0
 62
     5
 63
     7
421
 16777215
 74
     2
 91
        2
 64
     7
 65
     7
 75
     1
175
     1
 42
40.0
 92
        8
 66
     7
 43
1.0
 76
     1
 77
     6
 78
     2
 67
     7
 79
     3
170
     0
171
     0
290
     0
174
     0
 93
        1
 44
0.0
173
     0
291
     0
 45
0.0
1001
ACAD
1000
AcDbSavedByObjectVersion
1070
     0
  0
VISUALSTYLE
  5
3B
102
{ACAD_XDICTIONARY
360
C5
102
}
102
{ACAD_REACTORS
330
29
102
}
330
29
100
AcDbVisualStyle
  2
Sketchy
 70
    24
 71
     1
 72
     2
 73
     2
 90
        0
 40
-0.6
 41
-30.0
 62
     5
 63
     7
421
 16777215
 74
     2
 91
        2
 64
     7
 65
     7
 75
     1
175
     1
 42
40.0
 92
       11
 66
     7
 43
1.0
 76
     1
 77
     6
 78
     2
 67
     7
 79
     6
170
     0
171
     0
290
     0
174
     0
 93
        1
 44
0.0
173
     0
291
     0
 45
0.0
1001
ACAD
1000
AcDbSavedByObjectVersion
1070
     0
  0
VISUALSTYLE
  5
36
102
{ACAD_XDICTIONARY
360
BB
102
}
102
{ACAD_REACTORS
330
29
102
}
330
29
100
AcDbVisualStyle
  2
Thicken
 70
    13
 71
     2
 72
     2
 73
     0
 90
        0
 40
-0.6
 41
-30.0
 62
     5
 63
     7
421
 16777215
 74
     1
 91
        4
 64
     7
 65
   257
 75
     1
175
     1
 42
1.0
 92
       12
 66
     7
 43
1.0
 76
     1
 77
     6
 78
     2
 67
     7
 79
     5
170
     0
171
     0
290
     0
174
     0
 93
        1
 44
0.0
173
     0
291
     1
 45
0.0
1001
ACAD
1000
AcDbSavedByObjectVersion
1070
     0
  0
VISUALSTYLE
  5
30
102
{ACAD_XDICTIONARY
360
AF
102
}
102
{ACAD_REACTORS
330
29
102
}
330
29
100
AcDbVisualStyle
  2
Wireframe
 70
     5
 71
     0
 72
     2
 73
     0
 90
        0
 40
-0.6
 41
-30.0
 62
     5
 63
     7
421
 16777215
 74
     1
 91
        4
 64
     7
 65
   257
 75
     1
175
     1
 42
1.0
 92
        0
 66
   257
 43
1.0
 76
     1
 77
     6
 78
     2
 67
     7
 79
     3
170
     0
171
     0
290
     0
174
     0
 93
        1
 44
0.0
173
     0
291
     0
 45
0.0
1001
ACAD
1000
AcDbSavedByObjectVersion
1070
     0
  0
VISUALSTYLE
  5
3C
102
{ACAD_XDICTIONARY
360
C7
102
}
102
{ACAD_REACTORS
330
29
102
}
330
29
100
AcDbVisualStyle
  2
X-Ray
 70
    25
 71
     2
 72
     2
 73
     1
 90
        1
 40
0.5
 41
-30.0
 62
     5
 63
     7
421
 16777215
 74
     1
 91
        0
 64
     7
 65
   257
 75
     1
175
     1
 42
1.0
 92
        8
 66
     7
 43
1.0
 76
     1
 77
     6
 78
     2
 67
     7
 79
     3
170
     0
171
     0
290
     0
174
     0
 93
       13
 44
0.0
173
     0
291
     0
 45
0.0
1001
ACAD
1000
AcDbSavedByObjectVersion
1070
     0
  0
DICTIONARYVAR
  5
9E
102
{ACAD_REACTORS
330
99
102
}
330
99
100
DictionaryVariables
280
     0
  1
1:1
  0
DICTIONARYVAR
  5
9B
102
{ACAD_REACTORS
330
99
102
}
330
99
100
DictionaryVariables
280
     0
  1
STANDARD
  0
DICTIONARYVAR
  5
9A
102
{ACAD_REACTORS
330
99
102
}
330
99
100
DictionaryVariables
280
     0
  1
STANDARD
  0
DICTIONARYVAR
  5
9C
102
{ACAD_REACTORS
330
99
102
}
330
99
100
DictionaryVariables
280
     0
  1
Imperial24
  0
DICTIONARYVAR
  5
9D
102
{ACAD_REACTORS
330
99
102
}
330
99
100
DictionaryVariables
280
     0
  1
Imperial24
  0
DICTIONARYVAR
  5
9F
102
{ACAD_REACTORS
330
99
102
}
330
99
100
DictionaryVariables
280
     0
  1
2
  0
DICTIONARY
  5
D8
330
6B
100
AcDbDictionary
280
     1
281
     1
  3
ACAD_XREC_ROUNDTRIP
360
D9
  0
DICTIONARY
  5
1A
330
19
100
AcDbDictionary
280
     1
281
     1
  3
BUMPTILE
360
1C
  3
DIFFUSETILE
360
1B
  3
OPACITYTILE
360
1F
  3
REFLECTIONTILE
360
1E
  3
REFRACTIONTILE
360
20
  3
SPECULARTILE
360
1D
  0
DICTIONARY
  5
12
330
11
100
AcDbDictionary
280
     1
281
     1
  3
BUMPTILE
360
14
  3
DIFFUSETILE
360
13
  3
OPACITYTILE
360
17
  3
REFLECTIONTILE
360
16
  3
REFRACTIONTILE
360
18
  3
SPECULARTILE
360
15
  0
DICTIONARY
  5
22
330
21
100
AcDbDictionary
280
     1
281
     1
  3
BUMPTILE
360
24
  3
DIFFUSETILE
360
23
  3
OPACITYTILE
360
27
  3
REFLECTIONTILE
360
26
  3
REFRACTIONTILE
360
28
  3
SPECULARTILE
360
25
  0
DICTIONARY
  5
D4
330
67
100
AcDbDictionary
280
     1
281
     1
  3
ACAD_XREC_ROUNDTRIP
360
D5
  0
DICTIONARY
  5
D6
330
69
100
AcDbDictionary
280
     1
281
     1
  3
ACAD_XREC_ROUNDTRIP
360
D7
  0
DICTIONARY
  5
A0
330
65
100
AcDbDictionary
280
     1
281
     1
  3
ACAD_ROUNDTRIP_2008_TABLESTYLE_CELLSTYLEMAP
360
A1
  0
DICTIONARY
  5
AD
330
2F
100
AcDbDictionary
280
     1
281
     1
  3
ACAD_XREC_ROUNDTRIP
360
AE
  0
DICTIONARY
  5
AB
330
2E
100
AcDbDictionary
280
     1
281
     1
  3
ACAD_XREC_ROUNDTRIP
360
AC
  0
DICTIONARY
  5
B9
330
35
100
AcDbDictionary
280
     1
281
     1
  3
ACAD_XREC_ROUNDTRIP
360
BA
  0
DICTIONARY
  5
C1
330
39
100
AcDbDictionary
280
     1
281
     1
  3
ACAD_XREC_ROUNDTRIP
360
C2
  0
DICTIONARY
  5
B3
330
32
100
AcDbDictionary
280
     1
281
     1
  3
ACAD_XREC_ROUNDTRIP
360
B4
  0
DICTIONARY
  5
B7
330
34
100
AcDbDictionary
280
     1
281
     1
  3
ACAD_XREC_ROUNDTRIP
360
B8
  0
DICTIONARY
  5
D1
330
41
100
AcDbDictionary
280
     1
281
     1
  3
ACAD_XREC_ROUNDTRIP
360
D2
  0
DICTIONARY
  5
BF
330
38
100
AcDbDictionary
280
     1
281
     1
  3
ACAD_XREC_ROUNDTRIP
360
C0
  0
DICTIONARY
  5
A3
330
2A
100
AcDbDictionary
280
     1
281
     1
  3
ACAD_XREC_ROUNDTRIP
360
A4
  0
DICTIONARY
  5
A5
330
2B
100
AcDbDictionary
280
     1
281
     1
  3
ACAD_XREC_ROUNDTRIP
360
A6
  0
DICTIONARY
  5
A7
330
2C
100
AcDbDictionary
280
     1
281
     1
  3
ACAD_XREC_ROUNDTRIP
360
A8
  0
DICTIONARY
  5
A9
330
2D
100
AcDbDictionary
280
     1
281
     1
  3
ACAD_XREC_ROUNDTRIP
360
AA
  0
DICTIONARY
  5
B1
330
31
100
AcDbDictionary
280
     1
281
     1
  3
ACAD_XREC_ROUNDTRIP
360
B2
  0
DICTIONARY
  5
CD
330
3F
100
AcDbDictionary
280
     1
281
     1
  3
ACAD_XREC_ROUNDTRIP
360
CE
  0
DICTIONARY
  5
BD
330
37
100
AcDbDictionary
280
     1
281
     1
  3
ACAD_XREC_ROUNDTRIP
360
BE
  0
DICTIONARY
  5
CF
330
40
100
AcDbDictionary
280
     1
281
     1
  3
ACAD_XREC_ROUNDTRIP
360
D0
  0
DICTIONARY
  5
B5
330
33
100
AcDbDictionary
280
     1
281
     1
  3
ACAD_XREC_ROUNDTRIP
360
B6
  0
DICTIONARY
  5
CB
330
3E
100
AcDbDictionary
280
     1
281
     1
  3
ACAD_XREC_ROUNDTRIP
360
CC
  0
DICTIONARY
  5
C9
330
3D
100
AcDbDictionary
280
     1
281
     1
  3
ACAD_XREC_ROUNDTRIP
360
CA
  0
DICTIONARY
  5
C3
330
3A
100
AcDbDictionary
280
     1
281
     1
  3
ACAD_XREC_ROUNDTRIP
360
C4
  0
DICTIONARY
  5
C5
330
3B
100
AcDbDictionary
280
     1
281
     1
  3
ACAD_XREC_ROUNDTRIP
360
C6
  0
DICTIONARY
  5
BB
330
36
100
AcDbDictionary
280
     1
281
     1
  3
ACAD_XREC_ROUNDTRIP
360
BC
  0
DICTIONARY
  5
AF
330
30
100
AcDbDictionary
280
     1
281
     1
  3
ACAD_XREC_ROUNDTRIP
360
B0
  0
DICTIONARY
  5
C7
330
3C
100
AcDbDictionary
280
     1
281
     1
  3
ACAD_XREC_ROUNDTRIP
360
C8
  0
XRECORD
  5
D9
102
{ACAD_REACTORS
330
D8
102
}
330
D8
100
AcDbXrecord
280
     1
102
DISPLAYNAME
  1
Imperial24
102
FLAGS
 90
        0
  0
XRECORD
  5
1C
102
{ACAD_REACTORS
330
1A
102
}
330
1A
100
AcDbXrecord
280
     1
270
     1
271
     1
  0
XRECORD
  5
1B
102
{ACAD_REACTORS
330
1A
102
}
330
1A
100
AcDbXrecord
280
     1
270
     1
271
     1
  0
XRECORD
  5
1F
102
{ACAD_REACTORS
330
1A
102
}
330
1A
100
AcDbXrecord
280
     1
270
     1
271
     1
  0
XRECORD
  5
1E
102
{ACAD_REACTORS
330
1A
102
}
330
1A
100
AcDbXrecord
280
     1
270
     1
271
     1
  0
XRECORD
  5
20
102
{ACAD_REACTORS
330
1A
102
}
330
1A
100
AcDbXrecord
280
     1
270
     1
271
     1
  0
XRECORD
  5
1D
102
{ACAD_REACTORS
330
1A
102
}
330
1A
100
AcDbXrecord
280
     1
270
     1
271
     1
  0
XRECORD
  5
14
102
{ACAD_REACTORS
330
12
102
}
330
12
100
AcDbXrecord
280
     1
270
     1
271
     1
  0
XRECORD
  5
13
102
{ACAD_REACTORS
330
12
102
}
330
12
100
AcDbXrecord
280
     1
270
     1
271
     1
  0
XRECORD
  5
17
102
{ACAD_REACTORS
330
12
102
}
330
12
100
AcDbXrecord
280
     1
270
     1
271
     1
  0
XRECORD
  5
16
102
{ACAD_REACTORS
330
12
102
}
330
12
100
AcDbXrecord
280
     1
270
     1
271
     1
  0
XRECORD
  5
18
102
{ACAD_REACTORS
330
12
102
}
330
12
100
AcDbXrecord
280
     1
270
     1
271
     1
  0
XRECORD
  5
15
102
{ACAD_REACTORS
330
12
102
}
330
12
100
AcDbXrecord
280
     1
270
     1
271
     1
  0
XRECORD
  5
24
102
{ACAD_REACTORS
330
22
102
}
330
22
100
AcDbXrecord
280
     1
270
     1
271
     1
  0
XRECORD
  5
23
102
{ACAD_REACTORS
330
22
102
}
330
22
100
AcDbXrecord
280
     1
270
     1
271
     1
  0
XRECORD
  5
27
102
{ACAD_REACTORS
330
22
102
}
330
22
100
AcDbXrecord
280
     1
270
     1
271
     1
  0
XRECORD
  5
26
102
{ACAD_REACTORS
330
22
102
}
330
22
100
AcDbXrecord
280
     1
270
     1
271
     1
  0
XRECORD
  5
28
102
{ACAD_REACTORS
330
22
102
}
330
22
100
AcDbXrecord
280
     1
270
     1
271
     1
  0
XRECORD
  5
25
102
{ACAD_REACTORS
330
22
102
}
330
22
100
AcDbXrecord
280
     1
270
     1
271
     1
  0
XRECORD
  5
D5
102
{ACAD_REACTORS
330
D4
102
}
330
D4
100
AcDbXrecord
280
     1
102
ACAD_ROUNDTRIP_2012_MLEADER_STYLE
298
     1
  0
XRECORD
  5
D7
102
{ACAD_REACTORS
330
D6
102
}
330
D6
100
AcDbXrecord
280
     1
102
DISPLAYNAME
  1
Imperial24
102
FLAGS
 90
        0
  0
CELLSTYLEMAP
  5
A1
102
{ACAD_REACTORS
330
A0
102
}
330
A0
100
AcDbCellStyleMap
 90
        3
300
CELLSTYLE
  1
TABLEFORMAT_BEGIN
 90
        5
170
     1
 91
        0
 92
    32768
 62
   257
 93
        1
300
CONTENTFORMAT
  1
CONTENTFORMAT_BEGIN
 90
        0
 91
        0
 92
      512
 93
        0
300

 40
0.0
140
1.0
 94
        5
 62
     0
340
55
144
0.25
309
CONTENTFORMAT_END
171
     0
 94
        0
309
TABLEFORMAT_END
  1
CELLSTYLE_BEGIN
 90
        1
 91
        1
300
_TITLE
309
CELLSTYLE_END
300
CELLSTYLE
  1
TABLEFORMAT_BEGIN
 90
        5
170
     1
 91
        0
 92
        0
 62
   257
 93
        1
300
CONTENTFORMAT
  1
CONTENTFORMAT_BEGIN
 90
        0
 91
        0
 92
      512
 93
        0
300

 40
0.0
140
1.0
 94
        5
 62
     0
340
55
144
0.18
309
CONTENTFORMAT_END
171
     0
 94
        0
309
TABLEFORMAT_END
  1
CELLSTYLE_BEGIN
 90
        2
 91
        1
300
_HEADER
309
CELLSTYLE_END
300
CELLSTYLE
  1
TABLEFORMAT_BEGIN
 90
        5
170
     1
 91
        0
 92
        0
 62
   257
 93
        1
300
CONTENTFORMAT
  1
CONTENTFORMAT_BEGIN
 90
        0
 91
        0
 92
      512
 93
        0
300

 40
0.0
140
1.0
 94
        2
 62
     0
340
55
144
0.18
309
CONTENTFORMAT_END
171
     0
 94
        0
309
TABLEFORMAT_END
  1
CELLSTYLE_BEGIN
 90
        3
 91
        2
300
_DATA
309
CELLSTYLE_END
  0
XRECORD
  5
AE
102
{ACAD_REACTORS
330
AD
102
}
330
AD
100
AcDbXrecord
280
     1
102
RTVSPost2010Prop28
280
     1
102
RTVSPost2010PropOp28
 70
     1
102
RTVSPost2010Prop29
280
     1
102
RTVSPost2010PropOp29
 70
     1
102
RTVSPost2010Prop30
280
     0
102
RTVSPost2010PropOp30
 70
     1
102
RTVSPost2010Prop31
280
     0
102
RTVSPost2010PropOp31
 70
     1
102
RTVSPost2010Prop32
280
     0
102
RTVSPost2010PropOp32
 70
     1
102
RTVSPost2010Prop33
280
     0
102
RTVSPost2010PropOp33
 70
     1
102
RTVSPost2010Prop34
280
     0
102
RTVSPost2010PropOp34
 70
     1
102
RTVSPost2010Prop35
280
     0
102
RTVSPost2010PropOp35
 70
     1
102
RTVSPost2010Prop36
280
     0
102
RTVSPost2010PropOp36
 70
     1
102
RTVSPost2010Prop37
 90
       50
102
RTVSPost2010PropOp37
 70
     1
102
RTVSPost2010Prop38
140
0.0
102
RTVSPost2010PropOp38
 70
     1
102
RTVSPost2010Prop39
140
1.0
102
RTVSPost2010PropOp39
 70
     1
102
RTVSPost2010Prop40
 90
        0
102
RTVSPost2010PropOp40
 70
     1
102
RTVSPost2010Prop41ColorIndex
 90
       18
102
RTVSPost2010Prop41ColorRGB
 90
        0
102
RTVSPost2010PropOp41
 70
     1
102
RTVSPost2010Prop42
 90
       50
102
RTVSPost2010PropOp42
 70
     1
102
RTVSPost2010Prop43
 90
        3
102
RTVSPost2010PropOp43
 70
     1
102
RTVSPost2010Prop44ColorIndex
 90
        5
102
RTVSPost2010Prop44ColorRGB
 90
      255
102
RTVSPost2010PropOp44
 70
     1
102
RTVSPost2010Prop45
280
     0
102
RTVSPost2010PropOp45
 70
     1
102
RTVSPost2010Prop46
 90
       50
102
RTVSPost2010PropOp46
 70
     1
102
RTVSPost2010Prop47
 90
       50
102
RTVSPost2010PropOp47
 70
     1
102
RTVSPost2010Prop48
 90
       50
102
RTVSPost2010PropOp48
 70
     1
102
RTVSPost2010Prop49
280
     0
102
RTVSPost2010PropOp49
 70
     1
102
RTVSPost2010Prop50
 90
       50
102
RTVSPost2010PropOp50
 70
     1
102
RTVSPost2010Prop51ColorIndex
 90
      256
102
RTVSPost2010Prop51ColorRGB
 90
-16777216
102
RTVSPost2010PropOp51
 70
     0
102
RTVSPost2010Prop52
140
1.0
102
RTVSPost2010PropOp52
 70
     0
102
RTVSPost2010Prop53
 90
        2
102
RTVSPost2010PropOp53
 70
     1
102
RTVSPost2010Prop54
  1
strokes_ogs.tif
102
RTVSPost2010PropOp54
 70
     1
102
RTVSPost2010Prop55
280
     0
102
RTVSPost2010PropOp55
 70
     1
102
RTVSPost2010Prop56
140
1.0
102
RTVSPost2010PropOp56
 70
     1
102
RTVSPost2010Prop57
140
1.0
102
RTVSPost2010PropOp57
 70
     1
102
RTVSPropertyOp0
 70
     1
102
RTVSPropertyOp1
 70
     1
102
RTVSPropertyOp2
 70
     1
102
RTVSPropertyOp3
 70
     1
102
RTVSPropertyOp4
 70
     1
102
RTVSPropertyOp5
 70
     1
102
RTVSPropertyOp6
 70
     1
102
RTVSPropertyOp7
 70
     1
102
RTVSPropertyOp8
 70
     1
102
RTVSPropertyOp9
 70
     1
102
RTVSPropertyOp10
 70
     1
102
RTVSPropertyOp11
 70
     1
102
RTVSPropertyOp12
 70
     1
102
RTVSPropertyOp13
 70
     1
102
RTVSPropertyOp14
 70
     1
102
RTVSPropertyOp15
 70
     1
102
RTVSPropertyOp16
 70
     1
102
RTVSPropertyOp17
 70
     1
102
RTVSPropertyOp18
 70
     1
102
RTVSPropertyOp19
 70
     1
102
RTVSPropertyOp20
 70
     1
102
RTVSPropertyOp21
 70
     1
102
RTVSPropertyOp22
 70
     1
102
RTVSPropertyOp23
 70
     1
102
RTVSPropertyOp24
 70
     1
102
RTVSPropertyOp25
 70
     1
102
RTVSPropertyOp26
 70
     1
102
RTVSPropertyOp27
 70
     1
102
RTVSPropertyOp28
 70
     1
102
RTVSPropertyOp29
 70
     1
102
RTVSPropertyOp30
 70
     1
102
RTVSPropertyOp31
 70
     1
102
RTVSPropertyOp32
 70
     1
102
RTVSPropertyOp33
 70
     1
102
RTVSPropertyOp34
 70
     1
102
RTVSPropertyOp35
 70
     1
102
RTVSPropertyOp36
 70
     1
102
RTVSPropertyOp37
 70
     1
102
RTVSPropertyOp38
 70
     1
102
RTVSPropertyOp39
 70
     1
102
RTVSPropertyOp40
 70
     1
102
RTVSPropertyOp41
 70
     1
102
RTVSPropertyOp42
 70
     1
102
RTVSPropertyOp43
 70
     1
102
RTVSPropertyOp44
 70
     1
102
RTVSPropertyOp45
 70
     1
102
RTVSPropertyOp46
 70
     1
102
RTVSPropertyOp47
 70
     1
102
RTVSPropertyOp48
 70
     1
102
RTVSPropertyOp49
 70
     1
102
RTVSPropertyOp50
 70
     1
102
RTVSPropertyOp51
 70
     0
102
RTVSPropertyOp52
 70
     0
102
RTVSPropertyOp53
 70
     1
102
RTVSPropertyOp54
 70
     1
102
RTVSPropertyOp55
 70
     1
102
RTVSPropertyOp56
 70
     1
102
RTVSPropertyOp57
 70
     1
102
RTVSPropertyOp58
 70
     1
102
RTVSPropertyOp59
 70
     1
102
RTVSPropertyOp60
 70
     1
102
RTVSPropertyOp61
 70
     1
102
RTVSPropertyOp62
 70
     1
  0
XRECORD
  5
AC
102
{ACAD_REACTORS
330
AB
102
}
330
AB
100
AcDbXrecord
280
     1
102
RTVSPost2010Prop28
280
     0
102
RTVSPost2010PropOp28
 70
     1
102
RTVSPost2010Prop29
280
     1
102
RTVSPost2010PropOp29
 70
     1
102
RTVSPost2010Prop30
280
     1
102
RTVSPost2010PropOp30
 70
     1
102
RTVSPost2010Prop31
280
     0
102
RTVSPost2010PropOp31
 70
     1
102
RTVSPost2010Prop32
280
     0
102
RTVSPost2010PropOp32
 70
     1
102
RTVSPost2010Prop33
280
     0
102
RTVSPost2010PropOp33
 70
     1
102
RTVSPost2010Prop34
280
     0
102
RTVSPost2010PropOp34
 70
     1
102
RTVSPost2010Prop35
280
     0
102
RTVSPost2010PropOp35
 70
     1
102
RTVSPost2010Prop36
280
     0
102
RTVSPost2010PropOp36
 70
     1
102
RTVSPost2010Prop37
 90
       50
102
RTVSPost2010PropOp37
 70
     1
102
RTVSPost2010Prop38
140
0.0
102
RTVSPost2010PropOp38
 70
     1
102
RTVSPost2010Prop39
140
1.0
102
RTVSPost2010PropOp39
 70
     1
102
RTVSPost2010Prop40
 90
        0
102
RTVSPost2010PropOp40
 70
     1
102
RTVSPost2010Prop41ColorIndex
 90
       18
102
RTVSPost2010Prop41ColorRGB
 90
        0
102
RTVSPost2010PropOp41
 70
     1
102
RTVSPost2010Prop42
 90
       50
102
RTVSPost2010PropOp42
 70
     1
102
RTVSPost2010Prop43
 90
        3
102
RTVSPost2010PropOp43
 70
     1
102
RTVSPost2010Prop44ColorIndex
 90
        5
102
RTVSPost2010Prop44ColorRGB
 90
      255
102
RTVSPost2010PropOp44
 70
     1
102
RTVSPost2010Prop45
280
     0
102
RTVSPost2010PropOp45
 70
     1
102
RTVSPost2010Prop46
 90
       50
102
RTVSPost2010PropOp46
 70
     1
102
RTVSPost2010Prop47
 90
       50
102
RTVSPost2010PropOp47
 70
     1
102
RTVSPost2010Prop48
 90
       50
102
RTVSPost2010PropOp48
 70
     1
102
RTVSPost2010Prop49
280
     0
102
RTVSPost2010PropOp49
 70
     1
102
RTVSPost2010Prop50
 90
       50
102
RTVSPost2010PropOp50
 70
     1
102
RTVSPost2010Prop51ColorIndex
 90
      256
102
RTVSPost2010Prop51ColorRGB
 90
-16777216
102
RTVSPost2010PropOp51
 70
     0
102
RTVSPost2010Prop52
140
1.0
102
RTVSPost2010PropOp52
 70
     0
102
RTVSPost2010Prop53
 90
        2
102
RTVSPost2010PropOp53
 70
     1
102
RTVSPost2010Prop54
  1
strokes_ogs.tif
102
RTVSPost2010PropOp54
 70
     1
102
RTVSPost2010Prop55
280
     0
102
RTVSPost2010PropOp55
 70
     1
102
RTVSPost2010Prop56
140
1.0
102
RTVSPost2010PropOp56
 70
     1
102
RTVSPost2010Prop57
140
1.0
102
RTVSPost2010PropOp57
 70
     1
102
RTVSPropertyOp0
 70
     1
102
RTVSPropertyOp1
 70
     1
102
RTVSPropertyOp2
 70
     1
102
RTVSPropertyOp3
 70
     1
102
RTVSPropertyOp4
 70
     1
102
RTVSPropertyOp5
 70
     1
102
RTVSPropertyOp6
 70
     1
102
RTVSPropertyOp7
 70
     1
102
RTVSPropertyOp8
 70
     1
102
RTVSPropertyOp9
 70
     1
102
RTVSPropertyOp10
 70
     1
102
RTVSPropertyOp11
 70
     1
102
RTVSPropertyOp12
 70
     1
102
RTVSPropertyOp13
 70
     1
102
RTVSPropertyOp14
 70
     1
102
RTVSPropertyOp15
 70
     1
102
RTVSPropertyOp16
 70
     1
102
RTVSPropertyOp17
 70
     1
102
RTVSPropertyOp18
 70
     1
102
RTVSPropertyOp19
 70
     1
102
RTVSPropertyOp20
 70
     1
102
RTVSPropertyOp21
 70
     1
102
RTVSPropertyOp22
 70
     1
102
RTVSPropertyOp23
 70
     1
102
RTVSPropertyOp24
 70
     1
102
RTVSPropertyOp25
 70
     1
102
RTVSPropertyOp26
 70
     1
102
RTVSPropertyOp27
 70
     1
102
RTVSPropertyOp28
 70
     1
102
RTVSPropertyOp29
 70
     1
102
RTVSPropertyOp30
 70
     1
102
RTVSPropertyOp31
 70
     1
102
RTVSPropertyOp32
 70
     1
102
RTVSPropertyOp33
 70
     1
102
RTVSPropertyOp34
 70
     1
102
RTVSPropertyOp35
 70
     1
102
RTVSPropertyOp36
 70
     1
102
RTVSPropertyOp37
 70
     1
102
RTVSPropertyOp38
 70
     1
102
RTVSPropertyOp39
 70
     1
102
RTVSPropertyOp40
 70
     1
102
RTVSPropertyOp41
 70
     1
102
RTVSPropertyOp42
 70
     1
102
RTVSPropertyOp43
 70
     1
102
RTVSPropertyOp44
 70
     1
102
RTVSPropertyOp45
 70
     1
102
RTVSPropertyOp46
 70
     1
102
RTVSPropertyOp47
 70
     1
102
RTVSPropertyOp48
 70
     1
102
RTVSPropertyOp49
 70
     1
102
RTVSPropertyOp50
 70
     1
102
RTVSPropertyOp51
 70
     0
102
RTVSPropertyOp52
 70
     0
102
RTVSPropertyOp53
 70
     1
102
RTVSPropertyOp54
 70
     1
102
RTVSPropertyOp55
 70
     1
102
RTVSPropertyOp56
 70
     1
102
RTVSPropertyOp57
 70
     1
102
RTVSPropertyOp58
 70
     1
102
RTVSPropertyOp59
 70
     1
102
RTVSPropertyOp60
 70
     1
102
RTVSPropertyOp61
 70
     1
102
RTVSPropertyOp62
 70
     1
  0
XRECORD
  5
BA
102
{ACAD_REACTORS
330
B9
102
}
330
B9
100
AcDbXrecord
280
     1
102
RTVSPost2010Prop28
280
     0
102
RTVSPost2010PropOp28
 70
     1
102
RTVSPost2010Prop29
280
     1
102
RTVSPost2010PropOp29
 70
     1
102
RTVSPost2010Prop30
280
     1
102
RTVSPost2010PropOp30
 70
     1
102
RTVSPost2010Prop31
280
     0
102
RTVSPost2010PropOp31
 70
     1
102
RTVSPost2010Prop32
280
     0
102
RTVSPost2010PropOp32
 70
     1
102
RTVSPost2010Prop33
280
     0
102
RTVSPost2010PropOp33
 70
     1
102
RTVSPost2010Prop34
280
     0
102
RTVSPost2010PropOp34
 70
     1
102
RTVSPost2010Prop35
280
     0
102
RTVSPost2010PropOp35
 70
     1
102
RTVSPost2010Prop36
280
     0
102
RTVSPost2010PropOp36
 70
     1
102
RTVSPost2010Prop37
 90
       50
102
RTVSPost2010PropOp37
 70
     1
102
RTVSPost2010Prop38
140
0.0
102
RTVSPost2010PropOp38
 70
     1
102
RTVSPost2010Prop39
140
1.0
102
RTVSPost2010PropOp39
 70
     1
102
RTVSPost2010Prop40
 90
        0
102
RTVSPost2010PropOp40
 70
     1
102
RTVSPost2010Prop41ColorIndex
 90
       18
102
RTVSPost2010Prop41ColorRGB
 90
        0
102
RTVSPost2010PropOp41
 70
     1
102
RTVSPost2010Prop42
 90
       50
102
RTVSPost2010PropOp42
 70
     1
102
RTVSPost2010Prop43
 90
        3
102
RTVSPost2010PropOp43
 70
     1
102
RTVSPost2010Prop44ColorIndex
 90
        5
102
RTVSPost2010Prop44ColorRGB
 90
      255
102
RTVSPost2010PropOp44
 70
     1
102
RTVSPost2010Prop45
280
     0
102
RTVSPost2010PropOp45
 70
     1
102
RTVSPost2010Prop46
 90
       50
102
RTVSPost2010PropOp46
 70
     1
102
RTVSPost2010Prop47
 90
       50
102
RTVSPost2010PropOp47
 70
     1
102
RTVSPost2010Prop48
 90
       50
102
RTVSPost2010PropOp48
 70
     1
102
RTVSPost2010Prop49
280
     0
102
RTVSPost2010PropOp49
 70
     1
102
RTVSPost2010Prop50
 90
       50
102
RTVSPost2010PropOp50
 70
     1
102
RTVSPost2010Prop51ColorIndex
 90
      256
102
RTVSPost2010Prop51ColorRGB
 90
-16777216
102
RTVSPost2010PropOp51
 70
     0
102
RTVSPost2010Prop52
140
1.0
102
RTVSPost2010PropOp52
 70
     0
102
RTVSPost2010Prop53
 90
        2
102
RTVSPost2010PropOp53
 70
     1
102
RTVSPost2010Prop54
  1
strokes_ogs.tif
102
RTVSPost2010PropOp54
 70
     1
102
RTVSPost2010Prop55
280
     0
102
RTVSPost2010PropOp55
 70
     1
102
RTVSPost2010Prop56
140
1.0
102
RTVSPost2010PropOp56
 70
     1
102
RTVSPost2010Prop57
140
1.0
102
RTVSPost2010PropOp57
 70
     1
102
RTVSPropertyOp0
 70
     1
102
RTVSPropertyOp1
 70
     1
102
RTVSPropertyOp2
 70
     1
102
RTVSPropertyOp3
 70
     1
102
RTVSPropertyOp4
 70
     1
102
RTVSPropertyOp5
 70
     1
102
RTVSPropertyOp6
 70
     1
102
RTVSPropertyOp7
 70
     1
102
RTVSPropertyOp8
 70
     1
102
RTVSPropertyOp9
 70
     1
102
RTVSPropertyOp10
 70
     1
102
RTVSPropertyOp11
 70
     1
102
RTVSPropertyOp12
 70
     1
102
RTVSPropertyOp13
 70
     1
102
RTVSPropertyOp14
 70
     1
102
RTVSPropertyOp15
 70
     1
102
RTVSPropertyOp16
 70
     1
102
RTVSPropertyOp17
 70
     1
102
RTVSPropertyOp18
 70
     1
102
RTVSPropertyOp19
 70
     1
102
RTVSPropertyOp20
 70
     1
102
RTVSPropertyOp21
 70
     1
102
RTVSPropertyOp22
 70
     1
102
RTVSPropertyOp23
 70
     1
102
RTVSPropertyOp24
 70
     1
102
RTVSPropertyOp25
 70
     1
102
RTVSPropertyOp26
 70
     1
102
RTVSPropertyOp27
 70
     1
102
RTVSPropertyOp28
 70
     1
102
RTVSPropertyOp29
 70
     1
102
RTVSPropertyOp30
 70
     1
102
RTVSPropertyOp31
 70
     1
102
RTVSPropertyOp32
 70
     1
102
RTVSPropertyOp33
 70
     1
102
RTVSPropertyOp34
 70
     1
102
RTVSPropertyOp35
 70
     1
102
RTVSPropertyOp36
 70
     1
102
RTVSPropertyOp37
 70
     1
102
RTVSPropertyOp38
 70
     1
102
RTVSPropertyOp39
 70
     1
102
RTVSPropertyOp40
 70
     1
102
RTVSPropertyOp41
 70
     1
102
RTVSPropertyOp42
 70
     1
102
RTVSPropertyOp43
 70
     1
102
RTVSPropertyOp44
 70
     1
102
RTVSPropertyOp45
 70
     1
102
RTVSPropertyOp46
 70
     1
102
RTVSPropertyOp47
 70
     1
102
RTVSPropertyOp48
 70
     1
102
RTVSPropertyOp49
 70
     1
102
RTVSPropertyOp50
 70
     1
102
RTVSPropertyOp51
 70
     0
102
RTVSPropertyOp52
 70
     0
102
RTVSPropertyOp53
 70
     1
102
RTVSPropertyOp54
 70
     1
102
RTVSPropertyOp55
 70
     1
102
RTVSPropertyOp56
 70
     1
102
RTVSPropertyOp57
 70
     1
102
RTVSPropertyOp58
 70
     1
102
RTVSPropertyOp59
 70
     1
102
RTVSPropertyOp60
 70
     1
102
RTVSPropertyOp61
 70
     1
102
RTVSPropertyOp62
 70
     1
  0
XRECORD
  5
C2
102
{ACAD_REACTORS
330
C1
102
}
330
C1
100
AcDbXrecord
280
     1
102
RTVSPost2010Prop28
280
     0
102
RTVSPost2010PropOp28
 70
     1
102
RTVSPost2010Prop29
280
     1
102
RTVSPost2010PropOp29
 70
     1
102
RTVSPost2010Prop30
280
     1
102
RTVSPost2010PropOp30
 70
     1
102
RTVSPost2010Prop31
280
     0
102
RTVSPost2010PropOp31
 70
     1
102
RTVSPost2010Prop32
280
     0
102
RTVSPost2010PropOp32
 70
     1
102
RTVSPost2010Prop33
280
     0
102
RTVSPost2010PropOp33
 70
     1
102
RTVSPost2010Prop34
280
     0
102
RTVSPost2010PropOp34
 70
     1
102
RTVSPost2010Prop35
280
     0
102
RTVSPost2010PropOp35
 70
     1
102
RTVSPost2010Prop36
280
     0
102
RTVSPost2010PropOp36
 70
     1
102
RTVSPost2010Prop37
 90
       50
102
RTVSPost2010PropOp37
 70
     1
102
RTVSPost2010Prop38
140
0.0
102
RTVSPost2010PropOp38
 70
     1
102
RTVSPost2010Prop39
140
1.0
102
RTVSPost2010PropOp39
 70
     1
102
RTVSPost2010Prop40
 90
        0
102
RTVSPost2010PropOp40
 70
     1
102
RTVSPost2010Prop41ColorIndex
 90
       18
102
RTVSPost2010Prop41ColorRGB
 90
        0
102
RTVSPost2010PropOp41
 70
     1
102
RTVSPost2010Prop42
 90
       50
102
RTVSPost2010PropOp42
 70
     1
102
RTVSPost2010Prop43
 90
        3
102
RTVSPost2010PropOp43
 70
     1
102
RTVSPost2010Prop44ColorIndex
 90
        5
102
RTVSPost2010Prop44ColorRGB
 90
      255
102
RTVSPost2010PropOp44
 70
     1
102
RTVSPost2010Prop45
280
     0
102
RTVSPost2010PropOp45
 70
     1
102
RTVSPost2010Prop46
 90
       50
102
RTVSPost2010PropOp46
 70
     1
102
RTVSPost2010Prop47
 90
       50
102
RTVSPost2010PropOp47
 70
     1
102
RTVSPost2010Prop48
 90
       50
102
RTVSPost2010PropOp48
 70
     1
102
RTVSPost2010Prop49
280
     0
102
RTVSPost2010PropOp49
 70
     1
102
RTVSPost2010Prop50
 90
       50
102
RTVSPost2010PropOp50
 70
     1
102
RTVSPost2010Prop51ColorIndex
 90
      256
102
RTVSPost2010Prop51ColorRGB
 90
-16777216
102
RTVSPost2010PropOp51
 70
     0
102
RTVSPost2010Prop52
140
1.0
102
RTVSPost2010PropOp52
 70
     0
102
RTVSPost2010Prop53
 90
        2
102
RTVSPost2010PropOp53
 70
     1
102
RTVSPost2010Prop54
  1
strokes_ogs.tif
102
RTVSPost2010PropOp54
 70
     1
102
RTVSPost2010Prop55
280
     0
102
RTVSPost2010PropOp55
 70
     1
102
RTVSPost2010Prop56
140
1.0
102
RTVSPost2010PropOp56
 70
     1
102
RTVSPost2010Prop57
140
1.0
102
RTVSPost2010PropOp57
 70
     1
102
RTVSPropertyOp0
 70
     1
102
RTVSPropertyOp1
 70
     1
102
RTVSPropertyOp2
 70
     1
102
RTVSPropertyOp3
 70
     1
102
RTVSPropertyOp4
 70
     1
102
RTVSPropertyOp5
 70
     1
102
RTVSPropertyOp6
 70
     1
102
RTVSPropertyOp7
 70
     1
102
RTVSPropertyOp8
 70
     1
102
RTVSPropertyOp9
 70
     1
102
RTVSPropertyOp10
 70
     1
102
RTVSPropertyOp11
 70
     1
102
RTVSPropertyOp12
 70
     1
102
RTVSPropertyOp13
 70
     1
102
RTVSPropertyOp14
 70
     1
102
RTVSPropertyOp15
 70
     1
102
RTVSPropertyOp16
 70
     1
102
RTVSPropertyOp17
 70
     1
102
RTVSPropertyOp18
 70
     1
102
RTVSPropertyOp19
 70
     1
102
RTVSPropertyOp20
 70
     1
102
RTVSPropertyOp21
 70
     1
102
RTVSPropertyOp22
 70
     1
102
RTVSPropertyOp23
 70
     1
102
RTVSPropertyOp24
 70
     1
102
RTVSPropertyOp25
 70
     1
102
RTVSPropertyOp26
 70
     1
102
RTVSPropertyOp27
 70
     1
102
RTVSPropertyOp28
 70
     1
102
RTVSPropertyOp29
 70
     1
102
RTVSPropertyOp30
 70
     1
102
RTVSPropertyOp31
 70
     1
102
RTVSPropertyOp32
 70
     1
102
RTVSPropertyOp33
 70
     1
102
RTVSPropertyOp34
 70
     1
102
RTVSPropertyOp35
 70
     1
102
RTVSPropertyOp36
 70
     1
102
RTVSPropertyOp37
 70
     1
102
RTVSPropertyOp38
 70
     1
102
RTVSPropertyOp39
 70
     1
102
RTVSPropertyOp40
 70
     1
102
RTVSPropertyOp41
 70
     1
102
RTVSPropertyOp42
 70
     1
102
RTVSPropertyOp43
 70
     1
102
RTVSPropertyOp44
 70
     1
102
RTVSPropertyOp45
 70
     1
102
RTVSPropertyOp46
 70
     1
102
RTVSPropertyOp47
 70
     1
102
RTVSPropertyOp48
 70
     1
102
RTVSPropertyOp49
 70
     1
102
RTVSPropertyOp50
 70
     1
102
RTVSPropertyOp51
 70
     0
102
RTVSPropertyOp52
 70
     0
102
RTVSPropertyOp53
 70
     1
102
RTVSPropertyOp54
 70
     1
102
RTVSPropertyOp55
 70
     1
102
RTVSPropertyOp56
 70
     1
102
RTVSPropertyOp57
 70
     1
102
RTVSPropertyOp58
 70
     1
102
RTVSPropertyOp59
 70
     1
102
RTVSPropertyOp60
 70
     1
102
RTVSPropertyOp61
 70
     1
102
RTVSPropertyOp62
 70
     1
  0
XRECORD
  5
B4
102
{ACAD_REACTORS
330
B3
102
}
330
B3
100
AcDbXrecord
280
     1
102
RTVSPost2010Prop28
280
     0
102
RTVSPost2010PropOp28
 70
     1
102
RTVSPost2010Prop29
280
     1
102
RTVSPost2010PropOp29
 70
     1
102
RTVSPost2010Prop30
280
     1
102
RTVSPost2010PropOp30
 70
     1
102
RTVSPost2010Prop31
280
     0
102
RTVSPost2010PropOp31
 70
     1
102
RTVSPost2010Prop32
280
     0
102
RTVSPost2010PropOp32
 70
     1
102
RTVSPost2010Prop33
280
     0
102
RTVSPost2010PropOp33
 70
     1
102
RTVSPost2010Prop34
280
     0
102
RTVSPost2010PropOp34
 70
     1
102
RTVSPost2010Prop35
280
     0
102
RTVSPost2010PropOp35
 70
     1
102
RTVSPost2010Prop36
280
     0
102
RTVSPost2010PropOp36
 70
     1
102
RTVSPost2010Prop37
 90
       50
102
RTVSPost2010PropOp37
 70
     1
102
RTVSPost2010Prop38
140
0.0
102
RTVSPost2010PropOp38
 70
     1
102
RTVSPost2010Prop39
140
1.0
102
RTVSPost2010PropOp39
 70
     1
102
RTVSPost2010Prop40
 90
        0
102
RTVSPost2010PropOp40
 70
     1
102
RTVSPost2010Prop41ColorIndex
 90
       18
102
RTVSPost2010Prop41ColorRGB
 90
        0
102
RTVSPost2010PropOp41
 70
     1
102
RTVSPost2010Prop42
 90
       50
102
RTVSPost2010PropOp42
 70
     1
102
RTVSPost2010Prop43
 90
        3
102
RTVSPost2010PropOp43
 70
     1
102
RTVSPost2010Prop44ColorIndex
 90
        5
102
RTVSPost2010Prop44ColorRGB
 90
      255
102
RTVSPost2010PropOp44
 70
     1
102
RTVSPost2010Prop45
280
     0
102
RTVSPost2010PropOp45
 70
     1
102
RTVSPost2010Prop46
 90
       50
102
RTVSPost2010PropOp46
 70
     1
102
RTVSPost2010Prop47
 90
       50
102
RTVSPost2010PropOp47
 70
     1
102
RTVSPost2010Prop48
 90
       50
102
RTVSPost2010PropOp48
 70
     1
102
RTVSPost2010Prop49
280
     0
102
RTVSPost2010PropOp49
 70
     1
102
RTVSPost2010Prop50
 90
       50
102
RTVSPost2010PropOp50
 70
     1
102
RTVSPost2010Prop51ColorIndex
 90
      256
102
RTVSPost2010Prop51ColorRGB
 90
-16777216
102
RTVSPost2010PropOp51
 70
     0
102
RTVSPost2010Prop52
140
1.0
102
RTVSPost2010PropOp52
 70
     0
102
RTVSPost2010Prop53
 90
        2
102
RTVSPost2010PropOp53
 70
     1
102
RTVSPost2010Prop54
  1
strokes_ogs.tif
102
RTVSPost2010PropOp54
 70
     1
102
RTVSPost2010Prop55
280
     0
102
RTVSPost2010PropOp55
 70
     1
102
RTVSPost2010Prop56
140
1.0
102
RTVSPost2010PropOp56
 70
     1
102
RTVSPost2010Prop57
140
1.0
102
RTVSPost2010PropOp57
 70
     1
102
RTVSPropertyOp0
 70
     1
102
RTVSPropertyOp1
 70
     1
102
RTVSPropertyOp2
 70
     1
102
RTVSPropertyOp3
 70
     1
102
RTVSPropertyOp4
 70
     1
102
RTVSPropertyOp5
 70
     1
102
RTVSPropertyOp6
 70
     1
102
RTVSPropertyOp7
 70
     1
102
RTVSPropertyOp8
 70
     1
102
RTVSPropertyOp9
 70
     1
102
RTVSPropertyOp10
 70
     1
102
RTVSPropertyOp11
 70
     1
102
RTVSPropertyOp12
 70
     1
102
RTVSPropertyOp13
 70
     1
102
RTVSPropertyOp14
 70
     1
102
RTVSPropertyOp15
 70
     1
102
RTVSPropertyOp16
 70
     1
102
RTVSPropertyOp17
 70
     1
102
RTVSPropertyOp18
 70
     1
102
RTVSPropertyOp19
 70
     1
102
RTVSPropertyOp20
 70
     1
102
RTVSPropertyOp21
 70
     1
102
RTVSPropertyOp22
 70
     1
102
RTVSPropertyOp23
 70
     1
102
RTVSPropertyOp24
 70
     1
102
RTVSPropertyOp25
 70
     1
102
RTVSPropertyOp26
 70
     1
102
RTVSPropertyOp27
 70
     1
102
RTVSPropertyOp28
 70
     1
102
RTVSPropertyOp29
 70
     1
102
RTVSPropertyOp30
 70
     1
102
RTVSPropertyOp31
 70
     1
102
RTVSPropertyOp32
 70
     1
102
RTVSPropertyOp33
 70
     1
102
RTVSPropertyOp34
 70
     1
102
RTVSPropertyOp35
 70
     1
102
RTVSPropertyOp36
 70
     1
102
RTVSPropertyOp37
 70
     1
102
RTVSPropertyOp38
 70
     1
102
RTVSPropertyOp39
 70
     1
102
RTVSPropertyOp40
 70
     1
102
RTVSPropertyOp41
 70
     1
102
RTVSPropertyOp42
 70
     1
102
RTVSPropertyOp43
 70
     1
102
RTVSPropertyOp44
 70
     1
102
RTVSPropertyOp45
 70
     1
102
RTVSPropertyOp46
 70
     1
102
RTVSPropertyOp47
 70
     1
102
RTVSPropertyOp48
 70
     1
102
RTVSPropertyOp49
 70
     1
102
RTVSPropertyOp50
 70
     1
102
RTVSPropertyOp51
 70
     0
102
RTVSPropertyOp52
 70
     0
102
RTVSPropertyOp53
 70
     1
102
RTVSPropertyOp54
 70
     1
102
RTVSPropertyOp55
 70
     1
102
RTVSPropertyOp56
 70
     1
102
RTVSPropertyOp57
 70
     1
102
RTVSPropertyOp58
 70
     1
102
RTVSPropertyOp59
 70
     1
102
RTVSPropertyOp60
 70
     1
102
RTVSPropertyOp61
 70
     1
102
RTVSPropertyOp62
 70
     1
  0
XRECORD
  5
B8
102
{ACAD_REACTORS
330
B7
102
}
330
B7
100
AcDbXrecord
280
     1
102
RTVSPost2010Prop28
280
     0
102
RTVSPost2010PropOp28
 70
     1
102
RTVSPost2010Prop29
280
     1
102
RTVSPost2010PropOp29
 70
     1
102
RTVSPost2010Prop30
280
     1
102
RTVSPost2010PropOp30
 70
     1
102
RTVSPost2010Prop31
280
     0
102
RTVSPost2010PropOp31
 70
     1
102
RTVSPost2010Prop32
280
     0
102
RTVSPost2010PropOp32
 70
     1
102
RTVSPost2010Prop33
280
     0
102
RTVSPost2010PropOp33
 70
     1
102
RTVSPost2010Prop34
280
     0
102
RTVSPost2010PropOp34
 70
     1
102
RTVSPost2010Prop35
280
     0
102
RTVSPost2010PropOp35
 70
     1
102
RTVSPost2010Prop36
280
     0
102
RTVSPost2010PropOp36
 70
     1
102
RTVSPost2010Prop37
 90
       50
102
RTVSPost2010PropOp37
 70
     1
102
RTVSPost2010Prop38
140
0.0
102
RTVSPost2010PropOp38
 70
     1
102
RTVSPost2010Prop39
140
1.0
102
RTVSPost2010PropOp39
 70
     1
102
RTVSPost2010Prop40
 90
        0
102
RTVSPost2010PropOp40
 70
     1
102
RTVSPost2010Prop41ColorIndex
 90
       18
102
RTVSPost2010Prop41ColorRGB
 90
        0
102
RTVSPost2010PropOp41
 70
     1
102
RTVSPost2010Prop42
 90
       50
102
RTVSPost2010PropOp42
 70
     1
102
RTVSPost2010Prop43
 90
        3
102
RTVSPost2010PropOp43
 70
     1
102
RTVSPost2010Prop44ColorIndex
 90
        5
102
RTVSPost2010Prop44ColorRGB
 90
      255
102
RTVSPost2010PropOp44
 70
     1
102
RTVSPost2010Prop45
280
     0
102
RTVSPost2010PropOp45
 70
     1
102
RTVSPost2010Prop46
 90
       50
102
RTVSPost2010PropOp46
 70
     1
102
RTVSPost2010Prop47
 90
       50
102
RTVSPost2010PropOp47
 70
     1
102
RTVSPost2010Prop48
 90
       50
102
RTVSPost2010PropOp48
 70
     1
102
RTVSPost2010Prop49
280
     0
102
RTVSPost2010PropOp49
 70
     1
102
RTVSPost2010Prop50
 90
       50
102
RTVSPost2010PropOp50
 70
     1
102
RTVSPost2010Prop51ColorIndex
 90
      256
102
RTVSPost2010Prop51ColorRGB
 90
-16777216
102
RTVSPost2010PropOp51
 70
     0
102
RTVSPost2010Prop52
140
1.0
102
RTVSPost2010PropOp52
 70
     0
102
RTVSPost2010Prop53
 90
        2
102
RTVSPost2010PropOp53
 70
     1
102
RTVSPost2010Prop54
  1
strokes_ogs.tif
102
RTVSPost2010PropOp54
 70
     1
102
RTVSPost2010Prop55
280
     0
102
RTVSPost2010PropOp55
 70
     1
102
RTVSPost2010Prop56
140
1.0
102
RTVSPost2010PropOp56
 70
     1
102
RTVSPost2010Prop57
140
1.0
102
RTVSPost2010PropOp57
 70
     1
102
RTVSPropertyOp0
 70
     1
102
RTVSPropertyOp1
 70
     1
102
RTVSPropertyOp2
 70
     1
102
RTVSPropertyOp3
 70
     1
102
RTVSPropertyOp4
 70
     1
102
RTVSPropertyOp5
 70
     1
102
RTVSPropertyOp6
 70
     1
102
RTVSPropertyOp7
 70
     1
102
RTVSPropertyOp8
 70
     1
102
RTVSPropertyOp9
 70
     1
102
RTVSPropertyOp10
 70
     1
102
RTVSPropertyOp11
 70
     1
102
RTVSPropertyOp12
 70
     1
102
RTVSPropertyOp13
 70
     1
102
RTVSPropertyOp14
 70
     1
102
RTVSPropertyOp15
 70
     1
102
RTVSPropertyOp16
 70
     1
102
RTVSPropertyOp17
 70
     1
102
RTVSPropertyOp18
 70
     1
102
RTVSPropertyOp19
 70
     1
102
RTVSPropertyOp20
 70
     1
102
RTVSPropertyOp21
 70
     1
102
RTVSPropertyOp22
 70
     1
102
RTVSPropertyOp23
 70
     1
102
RTVSPropertyOp24
 70
     1
102
RTVSPropertyOp25
 70
     1
102
RTVSPropertyOp26
 70
     1
102
RTVSPropertyOp27
 70
     1
102
RTVSPropertyOp28
 70
     1
102
RTVSPropertyOp29
 70
     1
102
RTVSPropertyOp30
 70
     1
102
RTVSPropertyOp31
 70
     1
102
RTVSPropertyOp32
 70
     1
102
RTVSPropertyOp33
 70
     1
102
RTVSPropertyOp34
 70
     1
102
RTVSPropertyOp35
 70
     1
102
RTVSPropertyOp36
 70
     1
102
RTVSPropertyOp37
 70
     1
102
RTVSPropertyOp38
 70
     1
102
RTVSPropertyOp39
 70
     1
102
RTVSPropertyOp40
 70
     1
102
RTVSPropertyOp41
 70
     1
102
RTVSPropertyOp42
 70
     1
102
RTVSPropertyOp43
 70
     1
102
RTVSPropertyOp44
 70
     1
102
RTVSPropertyOp45
 70
     1
102
RTVSPropertyOp46
 70
     1
102
RTVSPropertyOp47
 70
     1
102
RTVSPropertyOp48
 70
     1
102
RTVSPropertyOp49
 70
     1
102
RTVSPropertyOp50
 70
     1
102
RTVSPropertyOp51
 70
     0
102
RTVSPropertyOp52
 70
     0
102
RTVSPropertyOp53
 70
     1
102
RTVSPropertyOp54
 70
     1
102
RTVSPropertyOp55
 70
     1
102
RTVSPropertyOp56
 70
     1
102
RTVSPropertyOp57
 70
     1
102
RTVSPropertyOp58
 70
     1
102
RTVSPropertyOp59
 70
     1
102
RTVSPropertyOp60
 70
     1
102
RTVSPropertyOp61
 70
     1
102
RTVSPropertyOp62
 70
     1
  0
XRECORD
  5
D2
102
{ACAD_REACTORS
330
D1
102
}
330
D1
100
AcDbXrecord
280
     1
102
RTVSPost2010Prop28
280
     0
102
RTVSPost2010PropOp28
 70
     0
102
RTVSPost2010Prop29
280
     1
102
RTVSPost2010PropOp29
 70
     0
102
RTVSPost2010Prop30
280
     1
102
RTVSPost2010PropOp30
 70
     0
102
RTVSPost2010Prop31
280
     0
102
RTVSPost2010PropOp31
 70
     0
102
RTVSPost2010Prop32
280
     0
102
RTVSPost2010PropOp32
 70
     0
102
RTVSPost2010Prop33
280
     0
102
RTVSPost2010PropOp33
 70
     0
102
RTVSPost2010Prop34
280
     0
102
RTVSPost2010PropOp34
 70
     0
102
RTVSPost2010Prop35
280
     0
102
RTVSPost2010PropOp35
 70
     0
102
RTVSPost2010Prop36
280
     0
102
RTVSPost2010PropOp36
 70
     0
102
RTVSPost2010Prop37
 90
       50
102
RTVSPost2010PropOp37
 70
     0
102
RTVSPost2010Prop38
140
0.0
102
RTVSPost2010PropOp38
 70
     0
102
RTVSPost2010Prop39
140
1.0
102
RTVSPost2010PropOp39
 70
     0
102
RTVSPost2010Prop40
 90
        0
102
RTVSPost2010PropOp40
 70
     0
102
RTVSPost2010Prop41ColorIndex
 90
       18
102
RTVSPost2010Prop41ColorRGB
 90
        0
102
RTVSPost2010PropOp41
 70
     0
102
RTVSPost2010Prop42
 90
       50
102
RTVSPost2010PropOp42
 70
     0
102
RTVSPost2010Prop43
 90
        3
102
RTVSPost2010PropOp43
 70
     0
102
RTVSPost2010Prop44ColorIndex
 90
        5
102
RTVSPost2010Prop44ColorRGB
 90
      255
102
RTVSPost2010PropOp44
 70
     0
102
RTVSPost2010Prop45
280
     0
102
RTVSPost2010PropOp45
 70
     0
102
RTVSPost2010Prop46
 90
       50
102
RTVSPost2010PropOp46
 70
     0
102
RTVSPost2010Prop47
 90
       50
102
RTVSPost2010PropOp47
 70
     0
102
RTVSPost2010Prop48
 90
       50
102
RTVSPost2010PropOp48
 70
     0
102
RTVSPost2010Prop49
280
     0
102
RTVSPost2010PropOp49
 70
     0
102
RTVSPost2010Prop50
 90
       50
102
RTVSPost2010PropOp50
 70
     0
102
RTVSPost2010Prop51ColorIndex
 90
      256
102
RTVSPost2010Prop51ColorRGB
 90
-16777216
102
RTVSPost2010PropOp51
 70
     0
102
RTVSPost2010Prop52
140
1.0
102
RTVSPost2010PropOp52
 70
     0
102
RTVSPost2010Prop53
 90
        2
102
RTVSPost2010PropOp53
 70
     0
102
RTVSPost2010Prop54
  1
strokes_ogs.tif
102
RTVSPost2010PropOp54
 70
     0
102
RTVSPost2010Prop55
280
     0
102
RTVSPost2010PropOp55
 70
     0
102
RTVSPost2010Prop56
140
1.0
102
RTVSPost2010PropOp56
 70
     0
102
RTVSPost2010Prop57
140
1.0
102
RTVSPost2010PropOp57
 70
     0
102
RTVSPropertyOp0
 70
     0
102
RTVSPropertyOp1
 70
     0
102
RTVSPropertyOp2
 70
     0
102
RTVSPropertyOp3
 70
     0
102
RTVSPropertyOp4
 70
     0
102
RTVSPropertyOp5
 70
     0
102
RTVSPropertyOp6
 70
     0
102
RTVSPropertyOp7
 70
     0
102
RTVSPropertyOp8
 70
     0
102
RTVSPropertyOp9
 70
     0
102
RTVSPropertyOp10
 70
     0
102
RTVSPropertyOp11
 70
     0
102
RTVSPropertyOp12
 70
     0
102
RTVSPropertyOp13
 70
     0
102
RTVSPropertyOp14
 70
     2
102
RTVSPropertyOp15
 70
     0
102
RTVSPropertyOp16
 70
     0
102
RTVSPropertyOp17
 70
     0
102
RTVSPropertyOp18
 70
     0
102
RTVSPropertyOp19
 70
     0
102
RTVSPropertyOp20
 70
     0
102
RTVSPropertyOp21
 70
     0
102
RTVSPropertyOp22
 70
     0
102
RTVSPropertyOp23
 70
     0
102
RTVSPropertyOp24
 70
     0
102
RTVSPropertyOp25
 70
     0
102
RTVSPropertyOp26
 70
     0
102
RTVSPropertyOp27
 70
     0
102
RTVSPropertyOp28
 70
     0
102
RTVSPropertyOp29
 70
     0
102
RTVSPropertyOp30
 70
     0
102
RTVSPropertyOp31
 70
     0
102
RTVSPropertyOp32
 70
     0
102
RTVSPropertyOp33
 70
     0
102
RTVSPropertyOp34
 70
     0
102
RTVSPropertyOp35
 70
     0
102
RTVSPropertyOp36
 70
     0
102
RTVSPropertyOp37
 70
     0
102
RTVSPropertyOp38
 70
     0
102
RTVSPropertyOp39
 70
     0
102
RTVSPropertyOp40
 70
     0
102
RTVSPropertyOp41
 70
     0
102
RTVSPropertyOp42
 70
     0
102
RTVSPropertyOp43
 70
     0
102
RTVSPropertyOp44
 70
     0
102
RTVSPropertyOp45
 70
     0
102
RTVSPropertyOp46
 70
     0
102
RTVSPropertyOp47
 70
     0
102
RTVSPropertyOp48
 70
     0
102
RTVSPropertyOp49
 70
     0
102
RTVSPropertyOp50
 70
     0
102
RTVSPropertyOp51
 70
     0
102
RTVSPropertyOp52
 70
     0
102
RTVSPropertyOp53
 70
     0
102
RTVSPropertyOp54
 70
     0
102
RTVSPropertyOp55
 70
     0
102
RTVSPropertyOp56
 70
     0
102
RTVSPropertyOp57
 70
     0
102
RTVSPropertyOp58
 70
     0
102
RTVSPropertyOp59
 70
     0
102
RTVSPropertyOp60
 70
     0
102
RTVSPropertyOp61
 70
     0
102
RTVSPropertyOp62
 70
     0
  0
XRECORD
  5
C0
102
{ACAD_REACTORS
330
BF
102
}
330
BF
100
AcDbXrecord
280
     1
102
RTVSPost2010Prop28
280
     0
102
RTVSPost2010PropOp28
 70
     1
102
RTVSPost2010Prop29
280
     1
102
RTVSPost2010PropOp29
 70
     1
102
RTVSPost2010Prop30
280
     1
102
RTVSPost2010PropOp30
 70
     1
102
RTVSPost2010Prop31
280
     0
102
RTVSPost2010PropOp31
 70
     1
102
RTVSPost2010Prop32
280
     0
102
RTVSPost2010PropOp32
 70
     1
102
RTVSPost2010Prop33
280
     0
102
RTVSPost2010PropOp33
 70
     1
102
RTVSPost2010Prop34
280
     0
102
RTVSPost2010PropOp34
 70
     1
102
RTVSPost2010Prop35
280
     0
102
RTVSPost2010PropOp35
 70
     1
102
RTVSPost2010Prop36
280
     0
102
RTVSPost2010PropOp36
 70
     1
102
RTVSPost2010Prop37
 90
       50
102
RTVSPost2010PropOp37
 70
     1
102
RTVSPost2010Prop38
140
0.0
102
RTVSPost2010PropOp38
 70
     1
102
RTVSPost2010Prop39
140
1.0
102
RTVSPost2010PropOp39
 70
     1
102
RTVSPost2010Prop40
 90
        0
102
RTVSPost2010PropOp40
 70
     1
102
RTVSPost2010Prop41ColorIndex
 90
       18
102
RTVSPost2010Prop41ColorRGB
 90
        0
102
RTVSPost2010PropOp41
 70
     1
102
RTVSPost2010Prop42
 90
       50
102
RTVSPost2010PropOp42
 70
     1
102
RTVSPost2010Prop43
 90
        3
102
RTVSPost2010PropOp43
 70
     1
102
RTVSPost2010Prop44ColorIndex
 90
        5
102
RTVSPost2010Prop44ColorRGB
 90
      255
102
RTVSPost2010PropOp44
 70
     1
102
RTVSPost2010Prop45
280
     0
102
RTVSPost2010PropOp45
 70
     1
102
RTVSPost2010Prop46
 90
       50
102
RTVSPost2010PropOp46
 70
     1
102
RTVSPost2010Prop47
 90
       50
102
RTVSPost2010PropOp47
 70
     1
102
RTVSPost2010Prop48
 90
       50
102
RTVSPost2010PropOp48
 70
     1
102
RTVSPost2010Prop49
280
     0
102
RTVSPost2010PropOp49
 70
     1
102
RTVSPost2010Prop50
 90
       50
102
RTVSPost2010PropOp50
 70
     1
102
RTVSPost2010Prop51ColorIndex
 90
      256
102
RTVSPost2010Prop51ColorRGB
 90
-16777216
102
RTVSPost2010PropOp51
 70
     0
102
RTVSPost2010Prop52
140
1.0
102
RTVSPost2010PropOp52
 70
     0
102
RTVSPost2010Prop53
 90
        2
102
RTVSPost2010PropOp53
 70
     1
102
RTVSPost2010Prop54
  1
strokes_ogs.tif
102
RTVSPost2010PropOp54
 70
     1
102
RTVSPost2010Prop55
280
     0
102
RTVSPost2010PropOp55
 70
     1
102
RTVSPost2010Prop56
140
1.0
102
RTVSPost2010PropOp56
 70
     1
102
RTVSPost2010Prop57
140
1.0
102
RTVSPost2010PropOp57
 70
     1
102
RTVSPropertyOp0
 70
     1
102
RTVSPropertyOp1
 70
     1
102
RTVSPropertyOp2
 70
     1
102
RTVSPropertyOp3
 70
     1
102
RTVSPropertyOp4
 70
     1
102
RTVSPropertyOp5
 70
     1
102
RTVSPropertyOp6
 70
     1
102
RTVSPropertyOp7
 70
     1
102
RTVSPropertyOp8
 70
     1
102
RTVSPropertyOp9
 70
     1
102
RTVSPropertyOp10
 70
     1
102
RTVSPropertyOp11
 70
     1
102
RTVSPropertyOp12
 70
     1
102
RTVSPropertyOp13
 70
     1
102
RTVSPropertyOp14
 70
     1
102
RTVSPropertyOp15
 70
     1
102
RTVSPropertyOp16
 70
     1
102
RTVSPropertyOp17
 70
     1
102
RTVSPropertyOp18
 70
     1
102
RTVSPropertyOp19
 70
     1
102
RTVSPropertyOp20
 70
     1
102
RTVSPropertyOp21
 70
     1
102
RTVSPropertyOp22
 70
     1
102
RTVSPropertyOp23
 70
     1
102
RTVSPropertyOp24
 70
     1
102
RTVSPropertyOp25
 70
     1
102
RTVSPropertyOp26
 70
     1
102
RTVSPropertyOp27
 70
     1
102
RTVSPropertyOp28
 70
     1
102
RTVSPropertyOp29
 70
     1
102
RTVSPropertyOp30
 70
     1
102
RTVSPropertyOp31
 70
     1
102
RTVSPropertyOp32
 70
     1
102
RTVSPropertyOp33
 70
     1
102
RTVSPropertyOp34
 70
     1
102
RTVSPropertyOp35
 70
     1
102
RTVSPropertyOp36
 70
     1
102
RTVSPropertyOp37
 70
     1
102
RTVSPropertyOp38
 70
     1
102
RTVSPropertyOp39
 70
     1
102
RTVSPropertyOp40
 70
     1
102
RTVSPropertyOp41
 70
     1
102
RTVSPropertyOp42
 70
     1
102
RTVSPropertyOp43
 70
     1
102
RTVSPropertyOp44
 70
     1
102
RTVSPropertyOp45
 70
     1
102
RTVSPropertyOp46
 70
     1
102
RTVSPropertyOp47
 70
     1
102
RTVSPropertyOp48
 70
     1
102
RTVSPropertyOp49
 70
     1
102
RTVSPropertyOp50
 70
     1
102
RTVSPropertyOp51
 70
     0
102
RTVSPropertyOp52
 70
     0
102
RTVSPropertyOp53
 70
     1
102
RTVSPropertyOp54
 70
     1
102
RTVSPropertyOp55
 70
     1
102
RTVSPropertyOp56
 70
     1
102
RTVSPropertyOp57
 70
     1
102
RTVSPropertyOp58
 70
     1
102
RTVSPropertyOp59
 70
     1
102
RTVSPropertyOp60
 70
     1
102
RTVSPropertyOp61
 70
     1
102
RTVSPropertyOp62
 70
     1
  0
XRECORD
  5
A4
102
{ACAD_REACTORS
330
A3
102
}
330
A3
100
AcDbXrecord
280
     1
102
RTVSPost2010Prop28
280
     0
102
RTVSPost2010PropOp28
 70
     1
102
RTVSPost2010Prop29
280
     1
102
RTVSPost2010PropOp29
 70
     1
102
RTVSPost2010Prop30
280
     1
102
RTVSPost2010PropOp30
 70
     1
102
RTVSPost2010Prop31
280
     0
102
RTVSPost2010PropOp31
 70
     1
102
RTVSPost2010Prop32
280
     0
102
RTVSPost2010PropOp32
 70
     1
102
RTVSPost2010Prop33
280
     0
102
RTVSPost2010PropOp33
 70
     1
102
RTVSPost2010Prop34
280
     0
102
RTVSPost2010PropOp34
 70
     1
102
RTVSPost2010Prop35
280
     0
102
RTVSPost2010PropOp35
 70
     1
102
RTVSPost2010Prop36
280
     0
102
RTVSPost2010PropOp36
 70
     1
102
RTVSPost2010Prop37
 90
       50
102
RTVSPost2010PropOp37
 70
     1
102
RTVSPost2010Prop38
140
0.0
102
RTVSPost2010PropOp38
 70
     1
102
RTVSPost2010Prop39
140
1.0
102
RTVSPost2010PropOp39
 70
     1
102
RTVSPost2010Prop40
 90
        0
102
RTVSPost2010PropOp40
 70
     1
102
RTVSPost2010Prop41ColorIndex
 90
       18
102
RTVSPost2010Prop41ColorRGB
 90
        0
102
RTVSPost2010PropOp41
 70
     1
102
RTVSPost2010Prop42
 90
       50
102
RTVSPost2010PropOp42
 70
     1
102
RTVSPost2010Prop43
 90
        3
102
RTVSPost2010PropOp43
 70
     1
102
RTVSPost2010Prop44ColorIndex
 90
        5
102
RTVSPost2010Prop44ColorRGB
 90
      255
102
RTVSPost2010PropOp44
 70
     1
102
RTVSPost2010Prop45
280
     0
102
RTVSPost2010PropOp45
 70
     1
102
RTVSPost2010Prop46
 90
       50
102
RTVSPost2010PropOp46
 70
     1
102
RTVSPost2010Prop47
 90
       50
102
RTVSPost2010PropOp47
 70
     1
102
RTVSPost2010Prop48
 90
       50
102
RTVSPost2010PropOp48
 70
     1
102
RTVSPost2010Prop49
280
     0
102
RTVSPost2010PropOp49
 70
     1
102
RTVSPost2010Prop50
 90
       50
102
RTVSPost2010PropOp50
 70
     1
102
RTVSPost2010Prop51ColorIndex
 90
      256
102
RTVSPost2010Prop51ColorRGB
 90
-16777216
102
RTVSPost2010PropOp51
 70
     0
102
RTVSPost2010Prop52
140
1.0
102
RTVSPost2010PropOp52
 70
     0
102
RTVSPost2010Prop53
 90
        2
102
RTVSPost2010PropOp53
 70
     1
102
RTVSPost2010Prop54
  1
strokes_ogs.tif
102
RTVSPost2010PropOp54
 70
     1
102
RTVSPost2010Prop55
280
     0
102
RTVSPost2010PropOp55
 70
     1
102
RTVSPost2010Prop56
140
1.0
102
RTVSPost2010PropOp56
 70
     1
102
RTVSPost2010Prop57
140
1.0
102
RTVSPost2010PropOp57
 70
     1
102
RTVSPropertyOp0
 70
     1
102
RTVSPropertyOp1
 70
     1
102
RTVSPropertyOp2
 70
     1
102
RTVSPropertyOp3
 70
     1
102
RTVSPropertyOp4
 70
     1
102
RTVSPropertyOp5
 70
     1
102
RTVSPropertyOp6
 70
     1
102
RTVSPropertyOp7
 70
     1
102
RTVSPropertyOp8
 70
     1
102
RTVSPropertyOp9
 70
     1
102
RTVSPropertyOp10
 70
     1
102
RTVSPropertyOp11
 70
     1
102
RTVSPropertyOp12
 70
     1
102
RTVSPropertyOp13
 70
     1
102
RTVSPropertyOp14
 70
     1
102
RTVSPropertyOp15
 70
     1
102
RTVSPropertyOp16
 70
     1
102
RTVSPropertyOp17
 70
     1
102
RTVSPropertyOp18
 70
     1
102
RTVSPropertyOp19
 70
     1
102
RTVSPropertyOp20
 70
     1
102
RTVSPropertyOp21
 70
     1
102
RTVSPropertyOp22
 70
     1
102
RTVSPropertyOp23
 70
     1
102
RTVSPropertyOp24
 70
     1
102
RTVSPropertyOp25
 70
     1
102
RTVSPropertyOp26
 70
     1
102
RTVSPropertyOp27
 70
     1
102
RTVSPropertyOp28
 70
     1
102
RTVSPropertyOp29
 70
     1
102
RTVSPropertyOp30
 70
     1
102
RTVSPropertyOp31
 70
     1
102
RTVSPropertyOp32
 70
     1
102
RTVSPropertyOp33
 70
     1
102
RTVSPropertyOp34
 70
     1
102
RTVSPropertyOp35
 70
     1
102
RTVSPropertyOp36
 70
     1
102
RTVSPropertyOp37
 70
     1
102
RTVSPropertyOp38
 70
     1
102
RTVSPropertyOp39
 70
     1
102
RTVSPropertyOp40
 70
     1
102
RTVSPropertyOp41
 70
     1
102
RTVSPropertyOp42
 70
     1
102
RTVSPropertyOp43
 70
     1
102
RTVSPropertyOp44
 70
     1
102
RTVSPropertyOp45
 70
     1
102
RTVSPropertyOp46
 70
     1
102
RTVSPropertyOp47
 70
     1
102
RTVSPropertyOp48
 70
     1
102
RTVSPropertyOp49
 70
     1
102
RTVSPropertyOp50
 70
     1
102
RTVSPropertyOp51
 70
     0
102
RTVSPropertyOp52
 70
     0
102
RTVSPropertyOp53
 70
     1
102
RTVSPropertyOp54
 70
     1
102
RTVSPropertyOp55
 70
     1
102
RTVSPropertyOp56
 70
     1
102
RTVSPropertyOp57
 70
     1
102
RTVSPropertyOp58
 70
     1
102
RTVSPropertyOp59
 70
     1
102
RTVSPropertyOp60
 70
     1
102
RTVSPropertyOp61
 70
     1
102
RTVSPropertyOp62
 70
     1
  0
XRECORD
  5
A6
102
{ACAD_REACTORS
330
A5
102
}
330
A5
100
AcDbXrecord
280
     1
102
RTVSPost2010Prop28
280
     0
102
RTVSPost2010PropOp28
 70
     1
102
RTVSPost2010Prop29
280
     1
102
RTVSPost2010PropOp29
 70
     1
102
RTVSPost2010Prop30
280
     1
102
RTVSPost2010PropOp30
 70
     1
102
RTVSPost2010Prop31
280
     0
102
RTVSPost2010PropOp31
 70
     1
102
RTVSPost2010Prop32
280
     0
102
RTVSPost2010PropOp32
 70
     1
102
RTVSPost2010Prop33
280
     0
102
RTVSPost2010PropOp33
 70
     1
102
RTVSPost2010Prop34
280
     0
102
RTVSPost2010PropOp34
 70
     1
102
RTVSPost2010Prop35
280
     0
102
RTVSPost2010PropOp35
 70
     1
102
RTVSPost2010Prop36
280
     0
102
RTVSPost2010PropOp36
 70
     1
102
RTVSPost2010Prop37
 90
       50
102
RTVSPost2010PropOp37
 70
     1
102
RTVSPost2010Prop38
140
0.0
102
RTVSPost2010PropOp38
 70
     1
102
RTVSPost2010Prop39
140
1.0
102
RTVSPost2010PropOp39
 70
     1
102
RTVSPost2010Prop40
 90
        0
102
RTVSPost2010PropOp40
 70
     1
102
RTVSPost2010Prop41ColorIndex
 90
       18
102
RTVSPost2010Prop41ColorRGB
 90
        0
102
RTVSPost2010PropOp41
 70
     1
102
RTVSPost2010Prop42
 90
       50
102
RTVSPost2010PropOp42
 70
     1
102
RTVSPost2010Prop43
 90
        3
102
RTVSPost2010PropOp43
 70
     1
102
RTVSPost2010Prop44ColorIndex
 90
        5
102
RTVSPost2010Prop44ColorRGB
 90
      255
102
RTVSPost2010PropOp44
 70
     1
102
RTVSPost2010Prop45
280
     0
102
RTVSPost2010PropOp45
 70
     1
102
RTVSPost2010Prop46
 90
       50
102
RTVSPost2010PropOp46
 70
     1
102
RTVSPost2010Prop47
 90
       50
102
RTVSPost2010PropOp47
 70
     1
102
RTVSPost2010Prop48
 90
       50
102
RTVSPost2010PropOp48
 70
     1
102
RTVSPost2010Prop49
280
     0
102
RTVSPost2010PropOp49
 70
     1
102
RTVSPost2010Prop50
 90
       50
102
RTVSPost2010PropOp50
 70
     1
102
RTVSPost2010Prop51ColorIndex
 90
      256
102
RTVSPost2010Prop51ColorRGB
 90
-16777216
102
RTVSPost2010PropOp51
 70
     0
102
RTVSPost2010Prop52
140
1.0
102
RTVSPost2010PropOp52
 70
     0
102
RTVSPost2010Prop53
 90
        2
102
RTVSPost2010PropOp53
 70
     1
102
RTVSPost2010Prop54
  1
strokes_ogs.tif
102
RTVSPost2010PropOp54
 70
     1
102
RTVSPost2010Prop55
280
     0
102
RTVSPost2010PropOp55
 70
     1
102
RTVSPost2010Prop56
140
1.0
102
RTVSPost2010PropOp56
 70
     1
102
RTVSPost2010Prop57
140
1.0
102
RTVSPost2010PropOp57
 70
     1
102
RTVSPropertyOp0
 70
     1
102
RTVSPropertyOp1
 70
     1
102
RTVSPropertyOp2
 70
     1
102
RTVSPropertyOp3
 70
     1
102
RTVSPropertyOp4
 70
     1
102
RTVSPropertyOp5
 70
     1
102
RTVSPropertyOp6
 70
     1
102
RTVSPropertyOp7
 70
     1
102
RTVSPropertyOp8
 70
     1
102
RTVSPropertyOp9
 70
     1
102
RTVSPropertyOp10
 70
     1
102
RTVSPropertyOp11
 70
     1
102
RTVSPropertyOp12
 70
     1
102
RTVSPropertyOp13
 70
     1
102
RTVSPropertyOp14
 70
     1
102
RTVSPropertyOp15
 70
     1
102
RTVSPropertyOp16
 70
     1
102
RTVSPropertyOp17
 70
     1
102
RTVSPropertyOp18
 70
     1
102
RTVSPropertyOp19
 70
     1
102
RTVSPropertyOp20
 70
     1
102
RTVSPropertyOp21
 70
     1
102
RTVSPropertyOp22
 70
     1
102
RTVSPropertyOp23
 70
     1
102
RTVSPropertyOp24
 70
     1
102
RTVSPropertyOp25
 70
     1
102
RTVSPropertyOp26
 70
     1
102
RTVSPropertyOp27
 70
     1
102
RTVSPropertyOp28
 70
     1
102
RTVSPropertyOp29
 70
     1
102
RTVSPropertyOp30
 70
     1
102
RTVSPropertyOp31
 70
     1
102
RTVSPropertyOp32
 70
     1
102
RTVSPropertyOp33
 70
     1
102
RTVSPropertyOp34
 70
     1
102
RTVSPropertyOp35
 70
     1
102
RTVSPropertyOp36
 70
     1
102
RTVSPropertyOp37
 70
     1
102
RTVSPropertyOp38
 70
     1
102
RTVSPropertyOp39
 70
     1
102
RTVSPropertyOp40
 70
     1
102
RTVSPropertyOp41
 70
     1
102
RTVSPropertyOp42
 70
     1
102
RTVSPropertyOp43
 70
     1
102
RTVSPropertyOp44
 70
     1
102
RTVSPropertyOp45
 70
     1
102
RTVSPropertyOp46
 70
     1
102
RTVSPropertyOp47
 70
     1
102
RTVSPropertyOp48
 70
     1
102
RTVSPropertyOp49
 70
     1
102
RTVSPropertyOp50
 70
     1
102
RTVSPropertyOp51
 70
     0
102
RTVSPropertyOp52
 70
     0
102
RTVSPropertyOp53
 70
     1
102
RTVSPropertyOp54
 70
     1
102
RTVSPropertyOp55
 70
     1
102
RTVSPropertyOp56
 70
     1
102
RTVSPropertyOp57
 70
     1
102
RTVSPropertyOp58
 70
     1
102
RTVSPropertyOp59
 70
     1
102
RTVSPropertyOp60
 70
     1
102
RTVSPropertyOp61
 70
     1
102
RTVSPropertyOp62
 70
     1
  0
XRECORD
  5
A8
102
{ACAD_REACTORS
330
A7
102
}
330
A7
100
AcDbXrecord
280
     1
102
RTVSPost2010Prop28
280
     0
102
RTVSPost2010PropOp28
 70
     1
102
RTVSPost2010Prop29
280
     1
102
RTVSPost2010PropOp29
 70
     1
102
RTVSPost2010Prop30
280
     1
102
RTVSPost2010PropOp30
 70
     1
102
RTVSPost2010Prop31
280
     0
102
RTVSPost2010PropOp31
 70
     1
102
RTVSPost2010Prop32
280
     0
102
RTVSPost2010PropOp32
 70
     1
102
RTVSPost2010Prop33
280
     0
102
RTVSPost2010PropOp33
 70
     1
102
RTVSPost2010Prop34
280
     0
102
RTVSPost2010PropOp34
 70
     1
102
RTVSPost2010Prop35
280
     0
102
RTVSPost2010PropOp35
 70
     1
102
RTVSPost2010Prop36
280
     0
102
RTVSPost2010PropOp36
 70
     1
102
RTVSPost2010Prop37
 90
       50
102
RTVSPost2010PropOp37
 70
     1
102
RTVSPost2010Prop38
140
0.0
102
RTVSPost2010PropOp38
 70
     1
102
RTVSPost2010Prop39
140
1.0
102
RTVSPost2010PropOp39
 70
     1
102
RTVSPost2010Prop40
 90
        0
102
RTVSPost2010PropOp40
 70
     1
102
RTVSPost2010Prop41ColorIndex
 90
       18
102
RTVSPost2010Prop41ColorRGB
 90
        0
102
RTVSPost2010PropOp41
 70
     1
102
RTVSPost2010Prop42
 90
       50
102
RTVSPost2010PropOp42
 70
     1
102
RTVSPost2010Prop43
 90
        3
102
RTVSPost2010PropOp43
 70
     1
102
RTVSPost2010Prop44ColorIndex
 90
        5
102
RTVSPost2010Prop44ColorRGB
 90
      255
102
RTVSPost2010PropOp44
 70
     1
102
RTVSPost2010Prop45
280
     0
102
RTVSPost2010PropOp45
 70
     1
102
RTVSPost2010Prop46
 90
       50
102
RTVSPost2010PropOp46
 70
     1
102
RTVSPost2010Prop47
 90
       50
102
RTVSPost2010PropOp47
 70
     1
102
RTVSPost2010Prop48
 90
       50
102
RTVSPost2010PropOp48
 70
     1
102
RTVSPost2010Prop49
280
     0
102
RTVSPost2010PropOp49
 70
     1
102
RTVSPost2010Prop50
 90
       50
102
RTVSPost2010PropOp50
 70
     1
102
RTVSPost2010Prop51ColorIndex
 90
      256
102
RTVSPost2010Prop51ColorRGB
 90
-16777216
102
RTVSPost2010PropOp51
 70
     0
102
RTVSPost2010Prop52
140
1.0
102
RTVSPost2010PropOp52
 70
     0
102
RTVSPost2010Prop53
 90
        2
102
RTVSPost2010PropOp53
 70
     1
102
RTVSPost2010Prop54
  1
strokes_ogs.tif
102
RTVSPost2010PropOp54
 70
     1
102
RTVSPost2010Prop55
280
     0
102
RTVSPost2010PropOp55
 70
     1
102
RTVSPost2010Prop56
140
1.0
102
RTVSPost2010PropOp56
 70
     1
102
RTVSPost2010Prop57
140
1.0
102
RTVSPost2010PropOp57
 70
     1
102
RTVSPropertyOp0
 70
     1
102
RTVSPropertyOp1
 70
     1
102
RTVSPropertyOp2
 70
     1
102
RTVSPropertyOp3
 70
     1
102
RTVSPropertyOp4
 70
     1
102
RTVSPropertyOp5
 70
     1
102
RTVSPropertyOp6
 70
     1
102
RTVSPropertyOp7
 70
     1
102
RTVSPropertyOp8
 70
     1
102
RTVSPropertyOp9
 70
     1
102
RTVSPropertyOp10
 70
     1
102
RTVSPropertyOp11
 70
     1
102
RTVSPropertyOp12
 70
     1
102
RTVSPropertyOp13
 70
     1
102
RTVSPropertyOp14
 70
     1
102
RTVSPropertyOp15
 70
     1
102
RTVSPropertyOp16
 70
     1
102
RTVSPropertyOp17
 70
     1
102
RTVSPropertyOp18
 70
     1
102
RTVSPropertyOp19
 70
     1
102
RTVSPropertyOp20
 70
     1
102
RTVSPropertyOp21
 70
     1
102
RTVSPropertyOp22
 70
     1
102
RTVSPropertyOp23
 70
     1
102
RTVSPropertyOp24
 70
     1
102
RTVSPropertyOp25
 70
     1
102
RTVSPropertyOp26
 70
     1
102
RTVSPropertyOp27
 70
     1
102
RTVSPropertyOp28
 70
     1
102
RTVSPropertyOp29
 70
     1
102
RTVSPropertyOp30
 70
     1
102
RTVSPropertyOp31
 70
     1
102
RTVSPropertyOp32
 70
     1
102
RTVSPropertyOp33
 70
     1
102
RTVSPropertyOp34
 70
     1
102
RTVSPropertyOp35
 70
     1
102
RTVSPropertyOp36
 70
     1
102
RTVSPropertyOp37
 70
     1
102
RTVSPropertyOp38
 70
     1
102
RTVSPropertyOp39
 70
     1
102
RTVSPropertyOp40
 70
     1
102
RTVSPropertyOp41
 70
     1
102
RTVSPropertyOp42
 70
     1
102
RTVSPropertyOp43
 70
     1
102
RTVSPropertyOp44
 70
     1
102
RTVSPropertyOp45
 70
     1
102
RTVSPropertyOp46
 70
     1
102
RTVSPropertyOp47
 70
     1
102
RTVSPropertyOp48
 70
     1
102
RTVSPropertyOp49
 70
     1
102
RTVSPropertyOp50
 70
     1
102
RTVSPropertyOp51
 70
     0
102
RTVSPropertyOp52
 70
     0
102
RTVSPropertyOp53
 70
     1
102
RTVSPropertyOp54
 70
     1
102
RTVSPropertyOp55
 70
     1
102
RTVSPropertyOp56
 70
     1
102
RTVSPropertyOp57
 70
     1
102
RTVSPropertyOp58
 70
     1
102
RTVSPropertyOp59
 70
     1
102
RTVSPropertyOp60
 70
     1
102
RTVSPropertyOp61
 70
     1
102
RTVSPropertyOp62
 70
     1
  0
XRECORD
  5
AA
102
{ACAD_REACTORS
330
A9
102
}
330
A9
100
AcDbXrecord
280
     1
102
RTVSPost2010Prop28
280
     0
102
RTVSPost2010PropOp28
 70
     1
102
RTVSPost2010Prop29
280
     1
102
RTVSPost2010PropOp29
 70
     1
102
RTVSPost2010Prop30
280
     1
102
RTVSPost2010PropOp30
 70
     1
102
RTVSPost2010Prop31
280
     0
102
RTVSPost2010PropOp31
 70
     1
102
RTVSPost2010Prop32
280
     0
102
RTVSPost2010PropOp32
 70
     1
102
RTVSPost2010Prop33
280
     0
102
RTVSPost2010PropOp33
 70
     1
102
RTVSPost2010Prop34
280
     0
102
RTVSPost2010PropOp34
 70
     1
102
RTVSPost2010Prop35
280
     0
102
RTVSPost2010PropOp35
 70
     1
102
RTVSPost2010Prop36
280
     0
102
RTVSPost2010PropOp36
 70
     1
102
RTVSPost2010Prop37
 90
       50
102
RTVSPost2010PropOp37
 70
     1
102
RTVSPost2010Prop38
140
0.0
102
RTVSPost2010PropOp38
 70
     1
102
RTVSPost2010Prop39
140
1.0
102
RTVSPost2010PropOp39
 70
     1
102
RTVSPost2010Prop40
 90
        0
102
RTVSPost2010PropOp40
 70
     1
102
RTVSPost2010Prop41ColorIndex
 90
       18
102
RTVSPost2010Prop41ColorRGB
 90
        0
102
RTVSPost2010PropOp41
 70
     1
102
RTVSPost2010Prop42
 90
       50
102
RTVSPost2010PropOp42
 70
     1
102
RTVSPost2010Prop43
 90
        3
102
RTVSPost2010PropOp43
 70
     1
102
RTVSPost2010Prop44ColorIndex
 90
        5
102
RTVSPost2010Prop44ColorRGB
 90
      255
102
RTVSPost2010PropOp44
 70
     1
102
RTVSPost2010Prop45
280
     0
102
RTVSPost2010PropOp45
 70
     1
102
RTVSPost2010Prop46
 90
       50
102
RTVSPost2010PropOp46
 70
     1
102
RTVSPost2010Prop47
 90
       50
102
RTVSPost2010PropOp47
 70
     1
102
RTVSPost2010Prop48
 90
       50
102
RTVSPost2010PropOp48
 70
     1
102
RTVSPost2010Prop49
280
     0
102
RTVSPost2010PropOp49
 70
     1
102
RTVSPost2010Prop50
 90
       50
102
RTVSPost2010PropOp50
 70
     1
102
RTVSPost2010Prop51ColorIndex
 90
      256
102
RTVSPost2010Prop51ColorRGB
 90
-16777216
102
RTVSPost2010PropOp51
 70
     0
102
RTVSPost2010Prop52
140
1.0
102
RTVSPost2010PropOp52
 70
     0
102
RTVSPost2010Prop53
 90
        2
102
RTVSPost2010PropOp53
 70
     1
102
RTVSPost2010Prop54
  1
strokes_ogs.tif
102
RTVSPost2010PropOp54
 70
     1
102
RTVSPost2010Prop55
280
     0
102
RTVSPost2010PropOp55
 70
     1
102
RTVSPost2010Prop56
140
1.0
102
RTVSPost2010PropOp56
 70
     1
102
RTVSPost2010Prop57
140
1.0
102
RTVSPost2010PropOp57
 70
     1
102
RTVSPropertyOp0
 70
     1
102
RTVSPropertyOp1
 70
     1
102
RTVSPropertyOp2
 70
     1
102
RTVSPropertyOp3
 70
     1
102
RTVSPropertyOp4
 70
     1
102
RTVSPropertyOp5
 70
     1
102
RTVSPropertyOp6
 70
     1
102
RTVSPropertyOp7
 70
     1
102
RTVSPropertyOp8
 70
     1
102
RTVSPropertyOp9
 70
     1
102
RTVSPropertyOp10
 70
     1
102
RTVSPropertyOp11
 70
     1
102
RTVSPropertyOp12
 70
     1
102
RTVSPropertyOp13
 70
     1
102
RTVSPropertyOp14
 70
     1
102
RTVSPropertyOp15
 70
     1
102
RTVSPropertyOp16
 70
     1
102
RTVSPropertyOp17
 70
     1
102
RTVSPropertyOp18
 70
     1
102
RTVSPropertyOp19
 70
     1
102
RTVSPropertyOp20
 70
     1
102
RTVSPropertyOp21
 70
     1
102
RTVSPropertyOp22
 70
     1
102
RTVSPropertyOp23
 70
     1
102
RTVSPropertyOp24
 70
     1
102
RTVSPropertyOp25
 70
     1
102
RTVSPropertyOp26
 70
     1
102
RTVSPropertyOp27
 70
     1
102
RTVSPropertyOp28
 70
     1
102
RTVSPropertyOp29
 70
     1
102
RTVSPropertyOp30
 70
     1
102
RTVSPropertyOp31
 70
     1
102
RTVSPropertyOp32
 70
     1
102
RTVSPropertyOp33
 70
     1
102
RTVSPropertyOp34
 70
     1
102
RTVSPropertyOp35
 70
     1
102
RTVSPropertyOp36
 70
     1
102
RTVSPropertyOp37
 70
     1
102
RTVSPropertyOp38
 70
     1
102
RTVSPropertyOp39
 70
     1
102
RTVSPropertyOp40
 70
     1
102
RTVSPropertyOp41
 70
     1
102
RTVSPropertyOp42
 70
     1
102
RTVSPropertyOp43
 70
     1
102
RTVSPropertyOp44
 70
     1
102
RTVSPropertyOp45
 70
     1
102
RTVSPropertyOp46
 70
     1
102
RTVSPropertyOp47
 70
     1
102
RTVSPropertyOp48
 70
     1
102
RTVSPropertyOp49
 70
     1
102
RTVSPropertyOp50
 70
     1
102
RTVSPropertyOp51
 70
     0
102
RTVSPropertyOp52
 70
     0
102
RTVSPropertyOp53
 70
     1
102
RTVSPropertyOp54
 70
     1
102
RTVSPropertyOp55
 70
     1
102
RTVSPropertyOp56
 70
     1
102
RTVSPropertyOp57
 70
     1
102
RTVSPropertyOp58
 70
     1
102
RTVSPropertyOp59
 70
     1
102
RTVSPropertyOp60
 70
     1
102
RTVSPropertyOp61
 70
     1
102
RTVSPropertyOp62
 70
     1
  0
XRECORD
  5
B2
102
{ACAD_REACTORS
330
B1
102
}
330
B1
100
AcDbXrecord
280
     1
102
RTVSPost2010Prop28
280
     0
102
RTVSPost2010PropOp28
 70
     1
102
RTVSPost2010Prop29
280
     1
102
RTVSPost2010PropOp29
 70
     1
102
RTVSPost2010Prop30
280
     1
102
RTVSPost2010PropOp30
 70
     1
102
RTVSPost2010Prop31
280
     0
102
RTVSPost2010PropOp31
 70
     1
102
RTVSPost2010Prop32
280
     0
102
RTVSPost2010PropOp32
 70
     1
102
RTVSPost2010Prop33
280
     0
102
RTVSPost2010PropOp33
 70
     1
102
RTVSPost2010Prop34
280
     0
102
RTVSPost2010PropOp34
 70
     1
102
RTVSPost2010Prop35
280
     0
102
RTVSPost2010PropOp35
 70
     1
102
RTVSPost2010Prop36
280
     0
102
RTVSPost2010PropOp36
 70
     1
102
RTVSPost2010Prop37
 90
       50
102
RTVSPost2010PropOp37
 70
     1
102
RTVSPost2010Prop38
140
0.0
102
RTVSPost2010PropOp38
 70
     1
102
RTVSPost2010Prop39
140
1.0
102
RTVSPost2010PropOp39
 70
     1
102
RTVSPost2010Prop40
 90
        0
102
RTVSPost2010PropOp40
 70
     1
102
RTVSPost2010Prop41ColorIndex
 90
       18
102
RTVSPost2010Prop41ColorRGB
 90
        0
102
RTVSPost2010PropOp41
 70
     1
102
RTVSPost2010Prop42
 90
       50
102
RTVSPost2010PropOp42
 70
     1
102
RTVSPost2010Prop43
 90
        3
102
RTVSPost2010PropOp43
 70
     1
102
RTVSPost2010Prop44ColorIndex
 90
        5
102
RTVSPost2010Prop44ColorRGB
 90
      255
102
RTVSPost2010PropOp44
 70
     1
102
RTVSPost2010Prop45
280
     0
102
RTVSPost2010PropOp45
 70
     1
102
RTVSPost2010Prop46
 90
       50
102
RTVSPost2010PropOp46
 70
     1
102
RTVSPost2010Prop47
 90
       50
102
RTVSPost2010PropOp47
 70
     1
102
RTVSPost2010Prop48
 90
       50
102
RTVSPost2010PropOp48
 70
     1
102
RTVSPost2010Prop49
280
     0
102
RTVSPost2010PropOp49
 70
     1
102
RTVSPost2010Prop50
 90
       50
102
RTVSPost2010PropOp50
 70
     1
102
RTVSPost2010Prop51ColorIndex
 90
      256
102
RTVSPost2010Prop51ColorRGB
 90
-16777216
102
RTVSPost2010PropOp51
 70
     0
102
RTVSPost2010Prop52
140
1.0
102
RTVSPost2010PropOp52
 70
     0
102
RTVSPost2010Prop53
 90
        2
102
RTVSPost2010PropOp53
 70
     1
102
RTVSPost2010Prop54
  1
strokes_ogs.tif
102
RTVSPost2010PropOp54
 70
     1
102
RTVSPost2010Prop55
280
     0
102
RTVSPost2010PropOp55
 70
     1
102
RTVSPost2010Prop56
140
1.0
102
RTVSPost2010PropOp56
 70
     1
102
RTVSPost2010Prop57
140
1.0
102
RTVSPost2010PropOp57
 70
     1
102
RTVSPropertyOp0
 70
     1
102
RTVSPropertyOp1
 70
     1
102
RTVSPropertyOp2
 70
     1
102
RTVSPropertyOp3
 70
     1
102
RTVSPropertyOp4
 70
     1
102
RTVSPropertyOp5
 70
     1
102
RTVSPropertyOp6
 70
     1
102
RTVSPropertyOp7
 70
     1
102
RTVSPropertyOp8
 70
     1
102
RTVSPropertyOp9
 70
     1
102
RTVSPropertyOp10
 70
     1
102
RTVSPropertyOp11
 70
     1
102
RTVSPropertyOp12
 70
     1
102
RTVSPropertyOp13
 70
     1
102
RTVSPropertyOp14
 70
     1
102
RTVSPropertyOp15
 70
     1
102
RTVSPropertyOp16
 70
     1
102
RTVSPropertyOp17
 70
     1
102
RTVSPropertyOp18
 70
     1
102
RTVSPropertyOp19
 70
     1
102
RTVSPropertyOp20
 70
     1
102
RTVSPropertyOp21
 70
     1
102
RTVSPropertyOp22
 70
     1
102
RTVSPropertyOp23
 70
     1
102
RTVSPropertyOp24
 70
     1
102
RTVSPropertyOp25
 70
     1
102
RTVSPropertyOp26
 70
     1
102
RTVSPropertyOp27
 70
     1
102
RTVSPropertyOp28
 70
     1
102
RTVSPropertyOp29
 70
     1
102
RTVSPropertyOp30
 70
     1
102
RTVSPropertyOp31
 70
     1
102
RTVSPropertyOp32
 70
     1
102
RTVSPropertyOp33
 70
     1
102
RTVSPropertyOp34
 70
     1
102
RTVSPropertyOp35
 70
     1
102
RTVSPropertyOp36
 70
     1
102
RTVSPropertyOp37
 70
     1
102
RTVSPropertyOp38
 70
     1
102
RTVSPropertyOp39
 70
     1
102
RTVSPropertyOp40
 70
     1
102
RTVSPropertyOp41
 70
     1
102
RTVSPropertyOp42
 70
     1
102
RTVSPropertyOp43
 70
     1
102
RTVSPropertyOp44
 70
     1
102
RTVSPropertyOp45
 70
     1
102
RTVSPropertyOp46
 70
     1
102
RTVSPropertyOp47
 70
     1
102
RTVSPropertyOp48
 70
     1
102
RTVSPropertyOp49
 70
     1
102
RTVSPropertyOp50
 70
     1
102
RTVSPropertyOp51
 70
     0
102
RTVSPropertyOp52
 70
     0
102
RTVSPropertyOp53
 70
     1
102
RTVSPropertyOp54
 70
     1
102
RTVSPropertyOp55
 70
     1
102
RTVSPropertyOp56
 70
     1
102
RTVSPropertyOp57
 70
     1
102
RTVSPropertyOp58
 70
     1
102
RTVSPropertyOp59
 70
     1
102
RTVSPropertyOp60
 70
     1
102
RTVSPropertyOp61
 70
     1
102
RTVSPropertyOp62
 70
     1
  0
XRECORD
  5
CE
102
{ACAD_REACTORS
330
CD
102
}
330
CD
100
AcDbXrecord
280
     1
102
RTVSPost2010Prop28
280
     0
102
RTVSPost2010PropOp28
 70
     0
102
RTVSPost2010Prop29
280
     1
102
RTVSPost2010PropOp29
 70
     0
102
RTVSPost2010Prop30
280
     1
102
RTVSPost2010PropOp30
 70
     0
102
RTVSPost2010Prop31
280
     0
102
RTVSPost2010PropOp31
 70
     0
102
RTVSPost2010Prop32
280
     0
102
RTVSPost2010PropOp32
 70
     0
102
RTVSPost2010Prop33
280
     0
102
RTVSPost2010PropOp33
 70
     0
102
RTVSPost2010Prop34
280
     0
102
RTVSPost2010PropOp34
 70
     0
102
RTVSPost2010Prop35
280
     0
102
RTVSPost2010PropOp35
 70
     0
102
RTVSPost2010Prop36
280
     0
102
RTVSPost2010PropOp36
 70
     0
102
RTVSPost2010Prop37
 90
       50
102
RTVSPost2010PropOp37
 70
     0
102
RTVSPost2010Prop38
140
0.0
102
RTVSPost2010PropOp38
 70
     0
102
RTVSPost2010Prop39
140
1.0
102
RTVSPost2010PropOp39
 70
     0
102
RTVSPost2010Prop40
 90
        0
102
RTVSPost2010PropOp40
 70
     0
102
RTVSPost2010Prop41ColorIndex
 90
       18
102
RTVSPost2010Prop41ColorRGB
 90
        0
102
RTVSPost2010PropOp41
 70
     0
102
RTVSPost2010Prop42
 90
       50
102
RTVSPost2010PropOp42
 70
     0
102
RTVSPost2010Prop43
 90
        3
102
RTVSPost2010PropOp43
 70
     0
102
RTVSPost2010Prop44ColorIndex
 90
        5
102
RTVSPost2010Prop44ColorRGB
 90
      255
102
RTVSPost2010PropOp44
 70
     0
102
RTVSPost2010Prop45
280
     0
102
RTVSPost2010PropOp45
 70
     0
102
RTVSPost2010Prop46
 90
       50
102
RTVSPost2010PropOp46
 70
     0
102
RTVSPost2010Prop47
 90
       50
102
RTVSPost2010PropOp47
 70
     0
102
RTVSPost2010Prop48
 90
       50
102
RTVSPost2010PropOp48
 70
     0
102
RTVSPost2010Prop49
280
     0
102
RTVSPost2010PropOp49
 70
     0
102
RTVSPost2010Prop50
 90
       50
102
RTVSPost2010PropOp50
 70
     0
102
RTVSPost2010Prop51ColorIndex
 90
      256
102
RTVSPost2010Prop51ColorRGB
 90
-16777216
102
RTVSPost2010PropOp51
 70
     0
102
RTVSPost2010Prop52
140
1.0
102
RTVSPost2010PropOp52
 70
     0
102
RTVSPost2010Prop53
 90
        2
102
RTVSPost2010PropOp53
 70
     0
102
RTVSPost2010Prop54
  1
strokes_ogs.tif
102
RTVSPost2010PropOp54
 70
     0
102
RTVSPost2010Prop55
280
     0
102
RTVSPost2010PropOp55
 70
     0
102
RTVSPost2010Prop56
140
1.0
102
RTVSPost2010PropOp56
 70
     0
102
RTVSPost2010Prop57
140
1.0
102
RTVSPost2010PropOp57
 70
     0
102
RTVSPropertyOp0
 70
     0
102
RTVSPropertyOp1
 70
     0
102
RTVSPropertyOp2
 70
     0
102
RTVSPropertyOp3
 70
     0
102
RTVSPropertyOp4
 70
     0
102
RTVSPropertyOp5
 70
     0
102
RTVSPropertyOp6
 70
     0
102
RTVSPropertyOp7
 70
     0
102
RTVSPropertyOp8
 70
     0
102
RTVSPropertyOp9
 70
     0
102
RTVSPropertyOp10
 70
     0
102
RTVSPropertyOp11
 70
     0
102
RTVSPropertyOp12
 70
     0
102
RTVSPropertyOp13
 70
     0
102
RTVSPropertyOp14
 70
     2
102
RTVSPropertyOp15
 70
     0
102
RTVSPropertyOp16
 70
     0
102
RTVSPropertyOp17
 70
     0
102
RTVSPropertyOp18
 70
     0
102
RTVSPropertyOp19
 70
     0
102
RTVSPropertyOp20
 70
     0
102
RTVSPropertyOp21
 70
     0
102
RTVSPropertyOp22
 70
     0
102
RTVSPropertyOp23
 70
     0
102
RTVSPropertyOp24
 70
     0
102
RTVSPropertyOp25
 70
     0
102
RTVSPropertyOp26
 70
     0
102
RTVSPropertyOp27
 70
     0
102
RTVSPropertyOp28
 70
     0
102
RTVSPropertyOp29
 70
     0
102
RTVSPropertyOp30
 70
     0
102
RTVSPropertyOp31
 70
     0
102
RTVSPropertyOp32
 70
     0
102
RTVSPropertyOp33
 70
     0
102
RTVSPropertyOp34
 70
     0
102
RTVSPropertyOp35
 70
     0
102
RTVSPropertyOp36
 70
     0
102
RTVSPropertyOp37
 70
     0
102
RTVSPropertyOp38
 70
     0
102
RTVSPropertyOp39
 70
     0
102
RTVSPropertyOp40
 70
     0
102
RTVSPropertyOp41
 70
     0
102
RTVSPropertyOp42
 70
     0
102
RTVSPropertyOp43
 70
     0
102
RTVSPropertyOp44
 70
     0
102
RTVSPropertyOp45
 70
     0
102
RTVSPropertyOp46
 70
     0
102
RTVSPropertyOp47
 70
     0
102
RTVSPropertyOp48
 70
     0
102
RTVSPropertyOp49
 70
     0
102
RTVSPropertyOp50
 70
     0
102
RTVSPropertyOp51
 70
     0
102
RTVSPropertyOp52
 70
     0
102
RTVSPropertyOp53
 70
     0
102
RTVSPropertyOp54
 70
     0
102
RTVSPropertyOp55
 70
     0
102
RTVSPropertyOp56
 70
     0
102
RTVSPropertyOp57
 70
     0
102
RTVSPropertyOp58
 70
     0
102
RTVSPropertyOp59
 70
     0
102
RTVSPropertyOp60
 70
     0
102
RTVSPropertyOp61
 70
     0
102
RTVSPropertyOp62
 70
     0
  0
XRECORD
  5
BE
102
{ACAD_REACTORS
330
BD
102
}
330
BD
100
AcDbXrecord
280
     1
102
RTVSPost2010Prop28
280
     0
102
RTVSPost2010PropOp28
 70
     1
102
RTVSPost2010Prop29
280
     1
102
RTVSPost2010PropOp29
 70
     1
102
RTVSPost2010Prop30
280
     1
102
RTVSPost2010PropOp30
 70
     1
102
RTVSPost2010Prop31
280
     0
102
RTVSPost2010PropOp31
 70
     1
102
RTVSPost2010Prop32
280
     0
102
RTVSPost2010PropOp32
 70
     1
102
RTVSPost2010Prop33
280
     0
102
RTVSPost2010PropOp33
 70
     1
102
RTVSPost2010Prop34
280
     0
102
RTVSPost2010PropOp34
 70
     1
102
RTVSPost2010Prop35
280
     0
102
RTVSPost2010PropOp35
 70
     1
102
RTVSPost2010Prop36
280
     0
102
RTVSPost2010PropOp36
 70
     1
102
RTVSPost2010Prop37
 90
       50
102
RTVSPost2010PropOp37
 70
     1
102
RTVSPost2010Prop38
140
0.0
102
RTVSPost2010PropOp38
 70
     1
102
RTVSPost2010Prop39
140
1.0
102
RTVSPost2010PropOp39
 70
     1
102
RTVSPost2010Prop40
 90
        0
102
RTVSPost2010PropOp40
 70
     1
102
RTVSPost2010Prop41ColorIndex
 90
       18
102
RTVSPost2010Prop41ColorRGB
 90
        0
102
RTVSPost2010PropOp41
 70
     1
102
RTVSPost2010Prop42
 90
       50
102
RTVSPost2010PropOp42
 70
     1
102
RTVSPost2010Prop43
 90
        3
102
RTVSPost2010PropOp43
 70
     1
102
RTVSPost2010Prop44ColorIndex
 90
        5
102
RTVSPost2010Prop44ColorRGB
 90
      255
102
RTVSPost2010PropOp44
 70
     1
102
RTVSPost2010Prop45
280
     0
102
RTVSPost2010PropOp45
 70
     1
102
RTVSPost2010Prop46
 90
       50
102
RTVSPost2010PropOp46
 70
     1
102
RTVSPost2010Prop47
 90
       50
102
RTVSPost2010PropOp47
 70
     1
102
RTVSPost2010Prop48
 90
       50
102
RTVSPost2010PropOp48
 70
     1
102
RTVSPost2010Prop49
280
     0
102
RTVSPost2010PropOp49
 70
     1
102
RTVSPost2010Prop50
 90
       50
102
RTVSPost2010PropOp50
 70
     1
102
RTVSPost2010Prop51ColorIndex
 90
      256
102
RTVSPost2010Prop51ColorRGB
 90
-16777216
102
RTVSPost2010PropOp51
 70
     0
102
RTVSPost2010Prop52
140
1.0
102
RTVSPost2010PropOp52
 70
     0
102
RTVSPost2010Prop53
 90
        2
102
RTVSPost2010PropOp53
 70
     1
102
RTVSPost2010Prop54
  1
strokes_ogs.tif
102
RTVSPost2010PropOp54
 70
     1
102
RTVSPost2010Prop55
280
     0
102
RTVSPost2010PropOp55
 70
     1
102
RTVSPost2010Prop56
140
1.0
102
RTVSPost2010PropOp56
 70
     1
102
RTVSPost2010Prop57
140
1.0
102
RTVSPost2010PropOp57
 70
     1
102
RTVSPropertyOp0
 70
     1
102
RTVSPropertyOp1
 70
     1
102
RTVSPropertyOp2
 70
     1
102
RTVSPropertyOp3
 70
     1
102
RTVSPropertyOp4
 70
     1
102
RTVSPropertyOp5
 70
     1
102
RTVSPropertyOp6
 70
     1
102
RTVSPropertyOp7
 70
     1
102
RTVSPropertyOp8
 70
     1
102
RTVSPropertyOp9
 70
     1
102
RTVSPropertyOp10
 70
     1
102
RTVSPropertyOp11
 70
     1
102
RTVSPropertyOp12
 70
     1
102
RTVSPropertyOp13
 70
     1
102
RTVSPropertyOp14
 70
     1
102
RTVSPropertyOp15
 70
     1
102
RTVSPropertyOp16
 70
     1
102
RTVSPropertyOp17
 70
     1
102
RTVSPropertyOp18
 70
     1
102
RTVSPropertyOp19
 70
     1
102
RTVSPropertyOp20
 70
     1
102
RTVSPropertyOp21
 70
     1
102
RTVSPropertyOp22
 70
     1
102
RTVSPropertyOp23
 70
     1
102
RTVSPropertyOp24
 70
     1
102
RTVSPropertyOp25
 70
     1
102
RTVSPropertyOp26
 70
     1
102
RTVSPropertyOp27
 70
     1
102
RTVSPropertyOp28
 70
     1
102
RTVSPropertyOp29
 70
     1
102
RTVSPropertyOp30
 70
     1
102
RTVSPropertyOp31
 70
     1
102
RTVSPropertyOp32
 70
     1
102
RTVSPropertyOp33
 70
     1
102
RTVSPropertyOp34
 70
     1
102
RTVSPropertyOp35
 70
     1
102
RTVSPropertyOp36
 70
     1
102
RTVSPropertyOp37
 70
     1
102
RTVSPropertyOp38
 70
     1
102
RTVSPropertyOp39
 70
     1
102
RTVSPropertyOp40
 70
     1
102
RTVSPropertyOp41
 70
     1
102
RTVSPropertyOp42
 70
     1
102
RTVSPropertyOp43
 70
     1
102
RTVSPropertyOp44
 70
     1
102
RTVSPropertyOp45
 70
     1
102
RTVSPropertyOp46
 70
     1
102
RTVSPropertyOp47
 70
     1
102
RTVSPropertyOp48
 70
     1
102
RTVSPropertyOp49
 70
     1
102
RTVSPropertyOp50
 70
     1
102
RTVSPropertyOp51
 70
     0
102
RTVSPropertyOp52
 70
     0
102
RTVSPropertyOp53
 70
     1
102
RTVSPropertyOp54
 70
     1
102
RTVSPropertyOp55
 70
     1
102
RTVSPropertyOp56
 70
     1
102
RTVSPropertyOp57
 70
     1
102
RTVSPropertyOp58
 70
     1
102
RTVSPropertyOp59
 70
     1
102
RTVSPropertyOp60
 70
     1
102
RTVSPropertyOp61
 70
     1
102
RTVSPropertyOp62
 70
     1
  0
XRECORD
  5
D0
102
{ACAD_REACTORS
330
CF
102
}
330
CF
100
AcDbXrecord
280
     1
102
RTVSPost2010Prop28
280
     0
102
RTVSPost2010PropOp28
 70
     0
102
RTVSPost2010Prop29
280
     1
102
RTVSPost2010PropOp29
 70
     0
102
RTVSPost2010Prop30
280
     1
102
RTVSPost2010PropOp30
 70
     0
102
RTVSPost2010Prop31
280
     0
102
RTVSPost2010PropOp31
 70
     0
102
RTVSPost2010Prop32
280
     0
102
RTVSPost2010PropOp32
 70
     0
102
RTVSPost2010Prop33
280
     0
102
RTVSPost2010PropOp33
 70
     0
102
RTVSPost2010Prop34
280
     0
102
RTVSPost2010PropOp34
 70
     0
102
RTVSPost2010Prop35
280
     0
102
RTVSPost2010PropOp35
 70
     0
102
RTVSPost2010Prop36
280
     0
102
RTVSPost2010PropOp36
 70
     0
102
RTVSPost2010Prop37
 90
       50
102
RTVSPost2010PropOp37
 70
     0
102
RTVSPost2010Prop38
140
0.0
102
RTVSPost2010PropOp38
 70
     0
102
RTVSPost2010Prop39
140
1.0
102
RTVSPost2010PropOp39
 70
     0
102
RTVSPost2010Prop40
 90
        0
102
RTVSPost2010PropOp40
 70
     0
102
RTVSPost2010Prop41ColorIndex
 90
       18
102
RTVSPost2010Prop41ColorRGB
 90
        0
102
RTVSPost2010PropOp41
 70
     0
102
RTVSPost2010Prop42
 90
       50
102
RTVSPost2010PropOp42
 70
     0
102
RTVSPost2010Prop43
 90
        3
102
RTVSPost2010PropOp43
 70
     0
102
RTVSPost2010Prop44ColorIndex
 90
        5
102
RTVSPost2010Prop44ColorRGB
 90
      255
102
RTVSPost2010PropOp44
 70
     0
102
RTVSPost2010Prop45
280
     0
102
RTVSPost2010PropOp45
 70
     0
102
RTVSPost2010Prop46
 90
       50
102
RTVSPost2010PropOp46
 70
     0
102
RTVSPost2010Prop47
 90
       50
102
RTVSPost2010PropOp47
 70
     0
102
RTVSPost2010Prop48
 90
       50
102
RTVSPost2010PropOp48
 70
     0
102
RTVSPost2010Prop49
280
     0
102
RTVSPost2010PropOp49
 70
     0
102
RTVSPost2010Prop50
 90
       50
102
RTVSPost2010PropOp50
 70
     0
102
RTVSPost2010Prop51ColorIndex
 90
      256
102
RTVSPost2010Prop51ColorRGB
 90
-16777216
102
RTVSPost2010PropOp51
 70
     0
102
RTVSPost2010Prop52
140
1.0
102
RTVSPost2010PropOp52
 70
     0
102
RTVSPost2010Prop53
 90
        2
102
RTVSPost2010PropOp53
 70
     0
102
RTVSPost2010Prop54
  1
strokes_ogs.tif
102
RTVSPost2010PropOp54
 70
     0
102
RTVSPost2010Prop55
280
     0
102
RTVSPost2010PropOp55
 70
     0
102
RTVSPost2010Prop56
140
1.0
102
RTVSPost2010PropOp56
 70
     0
102
RTVSPost2010Prop57
140
1.0
102
RTVSPost2010PropOp57
 70
     0
102
RTVSPropertyOp0
 70
     0
102
RTVSPropertyOp1
 70
     0
102
RTVSPropertyOp2
 70
     0
102
RTVSPropertyOp3
 70
     0
102
RTVSPropertyOp4
 70
     0
102
RTVSPropertyOp5
 70
     0
102
RTVSPropertyOp6
 70
     0
102
RTVSPropertyOp7
 70
     0
102
RTVSPropertyOp8
 70
     0
102
RTVSPropertyOp9
 70
     0
102
RTVSPropertyOp10
 70
     0
102
RTVSPropertyOp11
 70
     0
102
RTVSPropertyOp12
 70
     0
102
RTVSPropertyOp13
 70
     0
102
RTVSPropertyOp14
 70
     2
102
RTVSPropertyOp15
 70
     0
102
RTVSPropertyOp16
 70
     0
102
RTVSPropertyOp17
 70
     0
102
RTVSPropertyOp18
 70
     0
102
RTVSPropertyOp19
 70
     0
102
RTVSPropertyOp20
 70
     0
102
RTVSPropertyOp21
 70
     0
102
RTVSPropertyOp22
 70
     0
102
RTVSPropertyOp23
 70
     0
102
RTVSPropertyOp24
 70
     0
102
RTVSPropertyOp25
 70
     0
102
RTVSPropertyOp26
 70
     0
102
RTVSPropertyOp27
 70
     0
102
RTVSPropertyOp28
 70
     0
102
RTVSPropertyOp29
 70
     0
102
RTVSPropertyOp30
 70
     0
102
RTVSPropertyOp31
 70
     0
102
RTVSPropertyOp32
 70
     0
102
RTVSPropertyOp33
 70
     0
102
RTVSPropertyOp34
 70
     0
102
RTVSPropertyOp35
 70
     0
102
RTVSPropertyOp36
 70
     0
102
RTVSPropertyOp37
 70
     0
102
RTVSPropertyOp38
 70
     0
102
RTVSPropertyOp39
 70
     0
102
RTVSPropertyOp40
 70
     0
102
RTVSPropertyOp41
 70
     0
102
RTVSPropertyOp42
 70
     0
102
RTVSPropertyOp43
 70
     0
102
RTVSPropertyOp44
 70
     0
102
RTVSPropertyOp45
 70
     0
102
RTVSPropertyOp46
 70
     0
102
RTVSPropertyOp47
 70
     0
102
RTVSPropertyOp48
 70
     0
102
RTVSPropertyOp49
 70
     0
102
RTVSPropertyOp50
 70
     0
102
RTVSPropertyOp51
 70
     0
102
RTVSPropertyOp52
 70
     0
102
RTVSPropertyOp53
 70
     0
102
RTVSPropertyOp54
 70
     0
102
RTVSPropertyOp55
 70
     0
102
RTVSPropertyOp56
 70
     0
102
RTVSPropertyOp57
 70
     0
102
RTVSPropertyOp58
 70
     0
102
RTVSPropertyOp59
 70
     0
102
RTVSPropertyOp60
 70
     0
102
RTVSPropertyOp61
 70
     0
102
RTVSPropertyOp62
 70
     0
  0
XRECORD
  5
B6
102
{ACAD_REACTORS
330
B5
102
}
330
B5
100
AcDbXrecord
280
     1
102
RTVSPost2010Prop28
280
     0
102
RTVSPost2010PropOp28
 70
     1
102
RTVSPost2010Prop29
280
     1
102
RTVSPost2010PropOp29
 70
     1
102
RTVSPost2010Prop30
280
     1
102
RTVSPost2010PropOp30
 70
     1
102
RTVSPost2010Prop31
280
     0
102
RTVSPost2010PropOp31
 70
     1
102
RTVSPost2010Prop32
280
     0
102
RTVSPost2010PropOp32
 70
     1
102
RTVSPost2010Prop33
280
     0
102
RTVSPost2010PropOp33
 70
     1
102
RTVSPost2010Prop34
280
     0
102
RTVSPost2010PropOp34
 70
     1
102
RTVSPost2010Prop35
280
     0
102
RTVSPost2010PropOp35
 70
     1
102
RTVSPost2010Prop36
280
     0
102
RTVSPost2010PropOp36
 70
     1
102
RTVSPost2010Prop37
 90
       50
102
RTVSPost2010PropOp37
 70
     1
102
RTVSPost2010Prop38
140
0.0
102
RTVSPost2010PropOp38
 70
     1
102
RTVSPost2010Prop39
140
1.0
102
RTVSPost2010PropOp39
 70
     1
102
RTVSPost2010Prop40
 90
        0
102
RTVSPost2010PropOp40
 70
     1
102
RTVSPost2010Prop41ColorIndex
 90
       18
102
RTVSPost2010Prop41ColorRGB
 90
        0
102
RTVSPost2010PropOp41
 70
     1
102
RTVSPost2010Prop42
 90
       50
102
RTVSPost2010PropOp42
 70
     1
102
RTVSPost2010Prop43
 90
        3
102
RTVSPost2010PropOp43
 70
     1
102
RTVSPost2010Prop44ColorIndex
 90
        5
102
RTVSPost2010Prop44ColorRGB
 90
      255
102
RTVSPost2010PropOp44
 70
     1
102
RTVSPost2010Prop45
280
     0
102
RTVSPost2010PropOp45
 70
     1
102
RTVSPost2010Prop46
 90
       50
102
RTVSPost2010PropOp46
 70
     1
102
RTVSPost2010Prop47
 90
       50
102
RTVSPost2010PropOp47
 70
     1
102
RTVSPost2010Prop48
 90
       50
102
RTVSPost2010PropOp48
 70
     1
102
RTVSPost2010Prop49
280
     0
102
RTVSPost2010PropOp49
 70
     1
102
RTVSPost2010Prop50
 90
       50
102
RTVSPost2010PropOp50
 70
     1
102
RTVSPost2010Prop51ColorIndex
 90
      256
102
RTVSPost2010Prop51ColorRGB
 90
-16777216
102
RTVSPost2010PropOp51
 70
     0
102
RTVSPost2010Prop52
140
1.0
102
RTVSPost2010PropOp52
 70
     0
102
RTVSPost2010Prop53
 90
        2
102
RTVSPost2010PropOp53
 70
     1
102
RTVSPost2010Prop54
  1
strokes_ogs.tif
102
RTVSPost2010PropOp54
 70
     1
102
RTVSPost2010Prop55
280
     0
102
RTVSPost2010PropOp55
 70
     1
102
RTVSPost2010Prop56
140
1.0
102
RTVSPost2010PropOp56
 70
     1
102
RTVSPost2010Prop57
140
1.0
102
RTVSPost2010PropOp57
 70
     1
102
RTVSPropertyOp0
 70
     1
102
RTVSPropertyOp1
 70
     1
102
RTVSPropertyOp2
 70
     1
102
RTVSPropertyOp3
 70
     1
102
RTVSPropertyOp4
 70
     1
102
RTVSPropertyOp5
 70
     1
102
RTVSPropertyOp6
 70
     1
102
RTVSPropertyOp7
 70
     1
102
RTVSPropertyOp8
 70
     1
102
RTVSPropertyOp9
 70
     1
102
RTVSPropertyOp10
 70
     1
102
RTVSPropertyOp11
 70
     1
102
RTVSPropertyOp12
 70
     1
102
RTVSPropertyOp13
 70
     1
102
RTVSPropertyOp14
 70
     1
102
RTVSPropertyOp15
 70
     1
102
RTVSPropertyOp16
 70
     1
102
RTVSPropertyOp17
 70
     1
102
RTVSPropertyOp18
 70
     1
102
RTVSPropertyOp19
 70
     1
102
RTVSPropertyOp20
 70
     1
102
RTVSPropertyOp21
 70
     1
102
RTVSPropertyOp22
 70
     1
102
RTVSPropertyOp23
 70
     1
102
RTVSPropertyOp24
 70
     1
102
RTVSPropertyOp25
 70
     1
102
RTVSPropertyOp26
 70
     1
102
RTVSPropertyOp27
 70
     1
102
RTVSPropertyOp28
 70
     1
102
RTVSPropertyOp29
 70
     1
102
RTVSPropertyOp30
 70
     1
102
RTVSPropertyOp31
 70
     1
102
RTVSPropertyOp32
 70
     1
102
RTVSPropertyOp33
 70
     1
102
RTVSPropertyOp34
 70
     1
102
RTVSPropertyOp35
 70
     1
102
RTVSPropertyOp36
 70
     1
102
RTVSPropertyOp37
 70
     1
102
RTVSPropertyOp38
 70
     1
102
RTVSPropertyOp39
 70
     1
102
RTVSPropertyOp40
 70
     1
102
RTVSPropertyOp41
 70
     1
102
RTVSPropertyOp42
 70
     1
102
RTVSPropertyOp43
 70
     1
102
RTVSPropertyOp44
 70
     1
102
RTVSPropertyOp45
 70
     1
102
RTVSPropertyOp46
 70
     1
102
RTVSPropertyOp47
 70
     1
102
RTVSPropertyOp48
 70
     1
102
RTVSPropertyOp49
 70
     1
102
RTVSPropertyOp50
 70
     1
102
RTVSPropertyOp51
 70
     0
102
RTVSPropertyOp52
 70
     0
102
RTVSPropertyOp53
 70
     1
102
RTVSPropertyOp54
 70
     1
102
RTVSPropertyOp55
 70
     1
102
RTVSPropertyOp56
 70
     1
102
RTVSPropertyOp57
 70
     1
102
RTVSPropertyOp58
 70
     1
102
RTVSPropertyOp59
 70
     1
102
RTVSPropertyOp60
 70
     1
102
RTVSPropertyOp61
 70
     1
102
RTVSPropertyOp62
 70
     1
  0
XRECORD
  5
CC
102
{ACAD_REACTORS
330
CB
102
}
330
CB
100
AcDbXrecord
280
     1
102
RTVSPost2010Prop28
280
     0
102
RTVSPost2010PropOp28
 70
     1
102
RTVSPost2010Prop29
280
     1
102
RTVSPost2010PropOp29
 70
     1
102
RTVSPost2010Prop30
280
     1
102
RTVSPost2010PropOp30
 70
     1
102
RTVSPost2010Prop31
280
     0
102
RTVSPost2010PropOp31
 70
     1
102
RTVSPost2010Prop32
280
     0
102
RTVSPost2010PropOp32
 70
     1
102
RTVSPost2010Prop33
280
     0
102
RTVSPost2010PropOp33
 70
     1
102
RTVSPost2010Prop34
280
     0
102
RTVSPost2010PropOp34
 70
     1
102
RTVSPost2010Prop35
280
     0
102
RTVSPost2010PropOp35
 70
     1
102
RTVSPost2010Prop36
280
     0
102
RTVSPost2010PropOp36
 70
     1
102
RTVSPost2010Prop37
 90
       50
102
RTVSPost2010PropOp37
 70
     1
102
RTVSPost2010Prop38
140
0.0
102
RTVSPost2010PropOp38
 70
     1
102
RTVSPost2010Prop39
140
1.0
102
RTVSPost2010PropOp39
 70
     1
102
RTVSPost2010Prop40
 90
        0
102
RTVSPost2010PropOp40
 70
     1
102
RTVSPost2010Prop41ColorIndex
 90
       18
102
RTVSPost2010Prop41ColorRGB
 90
        0
102
RTVSPost2010PropOp41
 70
     1
102
RTVSPost2010Prop42
 90
       50
102
RTVSPost2010PropOp42
 70
     1
102
RTVSPost2010Prop43
 90
        3
102
RTVSPost2010PropOp43
 70
     1
102
RTVSPost2010Prop44ColorIndex
 90
        5
102
RTVSPost2010Prop44ColorRGB
 90
      255
102
RTVSPost2010PropOp44
 70
     1
102
RTVSPost2010Prop45
280
     0
102
RTVSPost2010PropOp45
 70
     1
102
RTVSPost2010Prop46
 90
       50
102
RTVSPost2010PropOp46
 70
     1
102
RTVSPost2010Prop47
 90
       50
102
RTVSPost2010PropOp47
 70
     1
102
RTVSPost2010Prop48
 90
       50
102
RTVSPost2010PropOp48
 70
     1
102
RTVSPost2010Prop49
280
     0
102
RTVSPost2010PropOp49
 70
     1
102
RTVSPost2010Prop50
 90
       50
102
RTVSPost2010PropOp50
 70
     1
102
RTVSPost2010Prop51ColorIndex
 90
      256
102
RTVSPost2010Prop51ColorRGB
 90
-16777216
102
RTVSPost2010PropOp51
 70
     0
102
RTVSPost2010Prop52
140
1.0
102
RTVSPost2010PropOp52
 70
     0
102
RTVSPost2010Prop53
 90
        2
102
RTVSPost2010PropOp53
 70
     1
102
RTVSPost2010Prop54
  1
strokes_ogs.tif
102
RTVSPost2010PropOp54
 70
     1
102
RTVSPost2010Prop55
280
     0
102
RTVSPost2010PropOp55
 70
     1
102
RTVSPost2010Prop56
140
1.0
102
RTVSPost2010PropOp56
 70
     1
102
RTVSPost2010Prop57
140
1.0
102
RTVSPost2010PropOp57
 70
     1
102
RTVSPropertyOp0
 70
     1
102
RTVSPropertyOp1
 70
     1
102
RTVSPropertyOp2
 70
     1
102
RTVSPropertyOp3
 70
     1
102
RTVSPropertyOp4
 70
     1
102
RTVSPropertyOp5
 70
     1
102
RTVSPropertyOp6
 70
     1
102
RTVSPropertyOp7
 70
     1
102
RTVSPropertyOp8
 70
     1
102
RTVSPropertyOp9
 70
     1
102
RTVSPropertyOp10
 70
     1
102
RTVSPropertyOp11
 70
     1
102
RTVSPropertyOp12
 70
     1
102
RTVSPropertyOp13
 70
     1
102
RTVSPropertyOp14
 70
     1
102
RTVSPropertyOp15
 70
     1
102
RTVSPropertyOp16
 70
     1
102
RTVSPropertyOp17
 70
     1
102
RTVSPropertyOp18
 70
     1
102
RTVSPropertyOp19
 70
     1
102
RTVSPropertyOp20
 70
     1
102
RTVSPropertyOp21
 70
     1
102
RTVSPropertyOp22
 70
     1
102
RTVSPropertyOp23
 70
     1
102
RTVSPropertyOp24
 70
     1
102
RTVSPropertyOp25
 70
     1
102
RTVSPropertyOp26
 70
     1
102
RTVSPropertyOp27
 70
     1
102
RTVSPropertyOp28
 70
     1
102
RTVSPropertyOp29
 70
     1
102
RTVSPropertyOp30
 70
     1
102
RTVSPropertyOp31
 70
     1
102
RTVSPropertyOp32
 70
     1
102
RTVSPropertyOp33
 70
     1
102
RTVSPropertyOp34
 70
     1
102
RTVSPropertyOp35
 70
     1
102
RTVSPropertyOp36
 70
     1
102
RTVSPropertyOp37
 70
     1
102
RTVSPropertyOp38
 70
     1
102
RTVSPropertyOp39
 70
     1
102
RTVSPropertyOp40
 70
     1
102
RTVSPropertyOp41
 70
     1
102
RTVSPropertyOp42
 70
     1
102
RTVSPropertyOp43
 70
     1
102
RTVSPropertyOp44
 70
     1
102
RTVSPropertyOp45
 70
     1
102
RTVSPropertyOp46
 70
     1
102
RTVSPropertyOp47
 70
     1
102
RTVSPropertyOp48
 70
     1
102
RTVSPropertyOp49
 70
     1
102
RTVSPropertyOp50
 70
     1
102
RTVSPropertyOp51
 70
     0
102
RTVSPropertyOp52
 70
     0
102
RTVSPropertyOp53
 70
     1
102
RTVSPropertyOp54
 70
     1
102
RTVSPropertyOp55
 70
     1
102
RTVSPropertyOp56
 70
     1
102
RTVSPropertyOp57
 70
     1
102
RTVSPropertyOp58
 70
     1
102
RTVSPropertyOp59
 70
     1
102
RTVSPropertyOp60
 70
     1
102
RTVSPropertyOp61
 70
     1
102
RTVSPropertyOp62
 70
     1
  0
XRECORD
  5
CA
102
{ACAD_REACTORS
330
C9
102
}
330
C9
100
AcDbXrecord
280
     1
102
RTVSPost2010Prop28
280
     0
102
RTVSPost2010PropOp28
 70
     1
102
RTVSPost2010Prop29
280
     1
102
RTVSPost2010PropOp29
 70
     1
102
RTVSPost2010Prop30
280
     1
102
RTVSPost2010PropOp30
 70
     1
102
RTVSPost2010Prop31
280
     0
102
RTVSPost2010PropOp31
 70
     1
102
RTVSPost2010Prop32
280
     0
102
RTVSPost2010PropOp32
 70
     1
102
RTVSPost2010Prop33
280
     0
102
RTVSPost2010PropOp33
 70
     1
102
RTVSPost2010Prop34
280
     0
102
RTVSPost2010PropOp34
 70
     1
102
RTVSPost2010Prop35
280
     0
102
RTVSPost2010PropOp35
 70
     1
102
RTVSPost2010Prop36
280
     0
102
RTVSPost2010PropOp36
 70
     1
102
RTVSPost2010Prop37
 90
       50
102
RTVSPost2010PropOp37
 70
     1
102
RTVSPost2010Prop38
140
0.0
102
RTVSPost2010PropOp38
 70
     1
102
RTVSPost2010Prop39
140
1.0
102
RTVSPost2010PropOp39
 70
     1
102
RTVSPost2010Prop40
 90
        0
102
RTVSPost2010PropOp40
 70
     1
102
RTVSPost2010Prop41ColorIndex
 90
       18
102
RTVSPost2010Prop41ColorRGB
 90
        0
102
RTVSPost2010PropOp41
 70
     1
102
RTVSPost2010Prop42
 90
       50
102
RTVSPost2010PropOp42
 70
     1
102
RTVSPost2010Prop43
 90
        3
102
RTVSPost2010PropOp43
 70
     1
102
RTVSPost2010Prop44ColorIndex
 90
        5
102
RTVSPost2010Prop44ColorRGB
 90
      255
102
RTVSPost2010PropOp44
 70
     1
102
RTVSPost2010Prop45
280
     0
102
RTVSPost2010PropOp45
 70
     1
102
RTVSPost2010Prop46
 90
       50
102
RTVSPost2010PropOp46
 70
     1
102
RTVSPost2010Prop47
 90
       50
102
RTVSPost2010PropOp47
 70
     1
102
RTVSPost2010Prop48
 90
       50
102
RTVSPost2010PropOp48
 70
     1
102
RTVSPost2010Prop49
280
     0
102
RTVSPost2010PropOp49
 70
     1
102
RTVSPost2010Prop50
 90
       50
102
RTVSPost2010PropOp50
 70
     1
102
RTVSPost2010Prop51ColorIndex
 90
      256
102
RTVSPost2010Prop51ColorRGB
 90
-16777216
102
RTVSPost2010PropOp51
 70
     0
102
RTVSPost2010Prop52
140
1.0
102
RTVSPost2010PropOp52
 70
     0
102
RTVSPost2010Prop53
 90
        2
102
RTVSPost2010PropOp53
 70
     1
102
RTVSPost2010Prop54
  1
strokes_ogs.tif
102
RTVSPost2010PropOp54
 70
     1
102
RTVSPost2010Prop55
280
     0
102
RTVSPost2010PropOp55
 70
     1
102
RTVSPost2010Prop56
140
1.0
102
RTVSPost2010PropOp56
 70
     1
102
RTVSPost2010Prop57
140
1.0
102
RTVSPost2010PropOp57
 70
     1
102
RTVSPropertyOp0
 70
     1
102
RTVSPropertyOp1
 70
     1
102
RTVSPropertyOp2
 70
     1
102
RTVSPropertyOp3
 70
     1
102
RTVSPropertyOp4
 70
     1
102
RTVSPropertyOp5
 70
     1
102
RTVSPropertyOp6
 70
     1
102
RTVSPropertyOp7
 70
     1
102
RTVSPropertyOp8
 70
     1
102
RTVSPropertyOp9
 70
     1
102
RTVSPropertyOp10
 70
     1
102
RTVSPropertyOp11
 70
     1
102
RTVSPropertyOp12
 70
     1
102
RTVSPropertyOp13
 70
     1
102
RTVSPropertyOp14
 70
     1
102
RTVSPropertyOp15
 70
     1
102
RTVSPropertyOp16
 70
     1
102
RTVSPropertyOp17
 70
     1
102
RTVSPropertyOp18
 70
     1
102
RTVSPropertyOp19
 70
     1
102
RTVSPropertyOp20
 70
     1
102
RTVSPropertyOp21
 70
     1
102
RTVSPropertyOp22
 70
     1
102
RTVSPropertyOp23
 70
     1
102
RTVSPropertyOp24
 70
     1
102
RTVSPropertyOp25
 70
     1
102
RTVSPropertyOp26
 70
     1
102
RTVSPropertyOp27
 70
     1
102
RTVSPropertyOp28
 70
     1
102
RTVSPropertyOp29
 70
     1
102
RTVSPropertyOp30
 70
     1
102
RTVSPropertyOp31
 70
     1
102
RTVSPropertyOp32
 70
     1
102
RTVSPropertyOp33
 70
     1
102
RTVSPropertyOp34
 70
     1
102
RTVSPropertyOp35
 70
     1
102
RTVSPropertyOp36
 70
     1
102
RTVSPropertyOp37
 70
     1
102
RTVSPropertyOp38
 70
     1
102
RTVSPropertyOp39
 70
     1
102
RTVSPropertyOp40
 70
     1
102
RTVSPropertyOp41
 70
     1
102
RTVSPropertyOp42
 70
     1
102
RTVSPropertyOp43
 70
     1
102
RTVSPropertyOp44
 70
     1
102
RTVSPropertyOp45
 70
     1
102
RTVSPropertyOp46
 70
     1
102
RTVSPropertyOp47
 70
     1
102
RTVSPropertyOp48
 70
     1
102
RTVSPropertyOp49
 70
     1
102
RTVSPropertyOp50
 70
     1
102
RTVSPropertyOp51
 70
     0
102
RTVSPropertyOp52
 70
     0
102
RTVSPropertyOp53
 70
     1
102
RTVSPropertyOp54
 70
     1
102
RTVSPropertyOp55
 70
     1
102
RTVSPropertyOp56
 70
     1
102
RTVSPropertyOp57
 70
     1
102
RTVSPropertyOp58
 70
     1
102
RTVSPropertyOp59
 70
     1
102
RTVSPropertyOp60
 70
     1
102
RTVSPropertyOp61
 70
     1
102
RTVSPropertyOp62
 70
     1
  0
XRECORD
  5
C4
102
{ACAD_REACTORS
330
C3
102
}
330
C3
100
AcDbXrecord
280
     1
102
RTVSPost2010Prop28
280
     0
102
RTVSPost2010PropOp28
 70
     1
102
RTVSPost2010Prop29
280
     1
102
RTVSPost2010PropOp29
 70
     1
102
RTVSPost2010Prop30
280
     1
102
RTVSPost2010PropOp30
 70
     1
102
RTVSPost2010Prop31
280
     0
102
RTVSPost2010PropOp31
 70
     1
102
RTVSPost2010Prop32
280
     0
102
RTVSPost2010PropOp32
 70
     1
102
RTVSPost2010Prop33
280
     0
102
RTVSPost2010PropOp33
 70
     1
102
RTVSPost2010Prop34
280
     0
102
RTVSPost2010PropOp34
 70
     1
102
RTVSPost2010Prop35
280
     0
102
RTVSPost2010PropOp35
 70
     1
102
RTVSPost2010Prop36
280
     0
102
RTVSPost2010PropOp36
 70
     1
102
RTVSPost2010Prop37
 90
       50
102
RTVSPost2010PropOp37
 70
     1
102
RTVSPost2010Prop38
140
0.0
102
RTVSPost2010PropOp38
 70
     1
102
RTVSPost2010Prop39
140
1.0
102
RTVSPost2010PropOp39
 70
     1
102
RTVSPost2010Prop40
 90
        0
102
RTVSPost2010PropOp40
 70
     1
102
RTVSPost2010Prop41ColorIndex
 90
       18
102
RTVSPost2010Prop41ColorRGB
 90
        0
102
RTVSPost2010PropOp41
 70
     1
102
RTVSPost2010Prop42
 90
       50
102
RTVSPost2010PropOp42
 70
     1
102
RTVSPost2010Prop43
 90
        3
102
RTVSPost2010PropOp43
 70
     1
102
RTVSPost2010Prop44ColorIndex
 90
        5
102
RTVSPost2010Prop44ColorRGB
 90
      255
102
RTVSPost2010PropOp44
 70
     1
102
RTVSPost2010Prop45
280
     0
102
RTVSPost2010PropOp45
 70
     1
102
RTVSPost2010Prop46
 90
       50
102
RTVSPost2010PropOp46
 70
     1
102
RTVSPost2010Prop47
 90
       50
102
RTVSPost2010PropOp47
 70
     1
102
RTVSPost2010Prop48
 90
       50
102
RTVSPost2010PropOp48
 70
     1
102
RTVSPost2010Prop49
280
     0
102
RTVSPost2010PropOp49
 70
     1
102
RTVSPost2010Prop50
 90
       50
102
RTVSPost2010PropOp50
 70
     1
102
RTVSPost2010Prop51ColorIndex
 90
      256
102
RTVSPost2010Prop51ColorRGB
 90
-16777216
102
RTVSPost2010PropOp51
 70
     0
102
RTVSPost2010Prop52
140
1.0
102
RTVSPost2010PropOp52
 70
     0
102
RTVSPost2010Prop53
 90
        2
102
RTVSPost2010PropOp53
 70
     1
102
RTVSPost2010Prop54
  1
strokes_ogs.tif
102
RTVSPost2010PropOp54
 70
     1
102
RTVSPost2010Prop55
280
     0
102
RTVSPost2010PropOp55
 70
     1
102
RTVSPost2010Prop56
140
1.0
102
RTVSPost2010PropOp56
 70
     1
102
RTVSPost2010Prop57
140
1.0
102
RTVSPost2010PropOp57
 70
     1
102
RTVSPropertyOp0
 70
     1
102
RTVSPropertyOp1
 70
     1
102
RTVSPropertyOp2
 70
     1
102
RTVSPropertyOp3
 70
     1
102
RTVSPropertyOp4
 70
     1
102
RTVSPropertyOp5
 70
     1
102
RTVSPropertyOp6
 70
     1
102
RTVSPropertyOp7
 70
     1
102
RTVSPropertyOp8
 70
     1
102
RTVSPropertyOp9
 70
     1
102
RTVSPropertyOp10
 70
     1
102
RTVSPropertyOp11
 70
     1
102
RTVSPropertyOp12
 70
     1
102
RTVSPropertyOp13
 70
     1
102
RTVSPropertyOp14
 70
     1
102
RTVSPropertyOp15
 70
     1
102
RTVSPropertyOp16
 70
     1
102
RTVSPropertyOp17
 70
     1
102
RTVSPropertyOp18
 70
     1
102
RTVSPropertyOp19
 70
     1
102
RTVSPropertyOp20
 70
     1
102
RTVSPropertyOp21
 70
     1
102
RTVSPropertyOp22
 70
     1
102
RTVSPropertyOp23
 70
     1
102
RTVSPropertyOp24
 70
     1
102
RTVSPropertyOp25
 70
     1
102
RTVSPropertyOp26
 70
     1
102
RTVSPropertyOp27
 70
     1
102
RTVSPropertyOp28
 70
     1
102
RTVSPropertyOp29
 70
     1
102
RTVSPropertyOp30
 70
     1
102
RTVSPropertyOp31
 70
     1
102
RTVSPropertyOp32
 70
     1
102
RTVSPropertyOp33
 70
     1
102
RTVSPropertyOp34
 70
     1
102
RTVSPropertyOp35
 70
     1
102
RTVSPropertyOp36
 70
     1
102
RTVSPropertyOp37
 70
     1
102
RTVSPropertyOp38
 70
     1
102
RTVSPropertyOp39
 70
     1
102
RTVSPropertyOp40
 70
     1
102
RTVSPropertyOp41
 70
     1
102
RTVSPropertyOp42
 70
     1
102
RTVSPropertyOp43
 70
     1
102
RTVSPropertyOp44
 70
     1
102
RTVSPropertyOp45
 70
     1
102
RTVSPropertyOp46
 70
     1
102
RTVSPropertyOp47
 70
     1
102
RTVSPropertyOp48
 70
     1
102
RTVSPropertyOp49
 70
     1
102
RTVSPropertyOp50
 70
     1
102
RTVSPropertyOp51
 70
     0
102
RTVSPropertyOp52
 70
     0
102
RTVSPropertyOp53
 70
     1
102
RTVSPropertyOp54
 70
     1
102
RTVSPropertyOp55
 70
     1
102
RTVSPropertyOp56
 70
     1
102
RTVSPropertyOp57
 70
     1
102
RTVSPropertyOp58
 70
     1
102
RTVSPropertyOp59
 70
     1
102
RTVSPropertyOp60
 70
     1
102
RTVSPropertyOp61
 70
     1
102
RTVSPropertyOp62
 70
     1
  0
XRECORD
  5
C6
102
{ACAD_REACTORS
330
C5
102
}
330
C5
100
AcDbXrecord
280
     1
102
RTVSPost2010Prop28
280
     0
102
RTVSPost2010PropOp28
 70
     1
102
RTVSPost2010Prop29
280
     1
102
RTVSPost2010PropOp29
 70
     1
102
RTVSPost2010Prop30
280
     1
102
RTVSPost2010PropOp30
 70
     1
102
RTVSPost2010Prop31
280
     0
102
RTVSPost2010PropOp31
 70
     1
102
RTVSPost2010Prop32
280
     0
102
RTVSPost2010PropOp32
 70
     1
102
RTVSPost2010Prop33
280
     0
102
RTVSPost2010PropOp33
 70
     1
102
RTVSPost2010Prop34
280
     0
102
RTVSPost2010PropOp34
 70
     1
102
RTVSPost2010Prop35
280
     0
102
RTVSPost2010PropOp35
 70
     1
102
RTVSPost2010Prop36
280
     0
102
RTVSPost2010PropOp36
 70
     1
102
RTVSPost2010Prop37
 90
       50
102
RTVSPost2010PropOp37
 70
     1
102
RTVSPost2010Prop38
140
0.0
102
RTVSPost2010PropOp38
 70
     1
102
RTVSPost2010Prop39
140
1.0
102
RTVSPost2010PropOp39
 70
     1
102
RTVSPost2010Prop40
 90
        0
102
RTVSPost2010PropOp40
 70
     1
102
RTVSPost2010Prop41ColorIndex
 90
       18
102
RTVSPost2010Prop41ColorRGB
 90
        0
102
RTVSPost2010PropOp41
 70
     1
102
RTVSPost2010Prop42
 90
       50
102
RTVSPost2010PropOp42
 70
     1
102
RTVSPost2010Prop43
 90
        3
102
RTVSPost2010PropOp43
 70
     1
102
RTVSPost2010Prop44ColorIndex
 90
        5
102
RTVSPost2010Prop44ColorRGB
 90
      255
102
RTVSPost2010PropOp44
 70
     1
102
RTVSPost2010Prop45
280
     0
102
RTVSPost2010PropOp45
 70
     1
102
RTVSPost2010Prop46
 90
       50
102
RTVSPost2010PropOp46
 70
     1
102
RTVSPost2010Prop47
 90
       50
102
RTVSPost2010PropOp47
 70
     1
102
RTVSPost2010Prop48
 90
       50
102
RTVSPost2010PropOp48
 70
     1
102
RTVSPost2010Prop49
280
     0
102
RTVSPost2010PropOp49
 70
     1
102
RTVSPost2010Prop50
 90
       50
102
RTVSPost2010PropOp50
 70
     1
102
RTVSPost2010Prop51ColorIndex
 90
      256
102
RTVSPost2010Prop51ColorRGB
 90
-16777216
102
RTVSPost2010PropOp51
 70
     0
102
RTVSPost2010Prop52
140
1.0
102
RTVSPost2010PropOp52
 70
     0
102
RTVSPost2010Prop53
 90
        2
102
RTVSPost2010PropOp53
 70
     1
102
RTVSPost2010Prop54
  1
strokes_ogs.tif
102
RTVSPost2010PropOp54
 70
     1
102
RTVSPost2010Prop55
280
     0
102
RTVSPost2010PropOp55
 70
     1
102
RTVSPost2010Prop56
140
1.0
102
RTVSPost2010PropOp56
 70
     1
102
RTVSPost2010Prop57
140
1.0
102
RTVSPost2010PropOp57
 70
     1
102
RTVSPropertyOp0
 70
     1
102
RTVSPropertyOp1
 70
     1
102
RTVSPropertyOp2
 70
     1
102
RTVSPropertyOp3
 70
     1
102
RTVSPropertyOp4
 70
     1
102
RTVSPropertyOp5
 70
     1
102
RTVSPropertyOp6
 70
     1
102
RTVSPropertyOp7
 70
     1
102
RTVSPropertyOp8
 70
     1
102
RTVSPropertyOp9
 70
     1
102
RTVSPropertyOp10
 70
     1
102
RTVSPropertyOp11
 70
     1
102
RTVSPropertyOp12
 70
     1
102
RTVSPropertyOp13
 70
     1
102
RTVSPropertyOp14
 70
     1
102
RTVSPropertyOp15
 70
     1
102
RTVSPropertyOp16
 70
     1
102
RTVSPropertyOp17
 70
     1
102
RTVSPropertyOp18
 70
     1
102
RTVSPropertyOp19
 70
     1
102
RTVSPropertyOp20
 70
     1
102
RTVSPropertyOp21
 70
     1
102
RTVSPropertyOp22
 70
     1
102
RTVSPropertyOp23
 70
     1
102
RTVSPropertyOp24
 70
     1
102
RTVSPropertyOp25
 70
     1
102
RTVSPropertyOp26
 70
     1
102
RTVSPropertyOp27
 70
     1
102
RTVSPropertyOp28
 70
     1
102
RTVSPropertyOp29
 70
     1
102
RTVSPropertyOp30
 70
     1
102
RTVSPropertyOp31
 70
     1
102
RTVSPropertyOp32
 70
     1
102
RTVSPropertyOp33
 70
     1
102
RTVSPropertyOp34
 70
     1
102
RTVSPropertyOp35
 70
     1
102
RTVSPropertyOp36
 70
     1
102
RTVSPropertyOp37
 70
     1
102
RTVSPropertyOp38
 70
     1
102
RTVSPropertyOp39
 70
     1
102
RTVSPropertyOp40
 70
     1
102
RTVSPropertyOp41
 70
     1
102
RTVSPropertyOp42
 70
     1
102
RTVSPropertyOp43
 70
     1
102
RTVSPropertyOp44
 70
     1
102
RTVSPropertyOp45
 70
     1
102
RTVSPropertyOp46
 70
     1
102
RTVSPropertyOp47
 70
     1
102
RTVSPropertyOp48
 70
     1
102
RTVSPropertyOp49
 70
     1
102
RTVSPropertyOp50
 70
     1
102
RTVSPropertyOp51
 70
     0
102
RTVSPropertyOp52
 70
     0
102
RTVSPropertyOp53
 70
     1
102
RTVSPropertyOp54
 70
     1
102
RTVSPropertyOp55
 70
     1
102
RTVSPropertyOp56
 70
     1
102
RTVSPropertyOp57
 70
     1
102
RTVSPropertyOp58
 70
     1
102
RTVSPropertyOp59
 70
     1
102
RTVSPropertyOp60
 70
     1
102
RTVSPropertyOp61
 70
     1
102
RTVSPropertyOp62
 70
     1
  0
XRECORD
  5
BC
102
{ACAD_REACTORS
330
BB
102
}
330
BB
100
AcDbXrecord
280
     1
102
RTVSPost2010Prop28
280
     0
102
RTVSPost2010PropOp28
 70
     1
102
RTVSPost2010Prop29
280
     1
102
RTVSPost2010PropOp29
 70
     1
102
RTVSPost2010Prop30
280
     1
102
RTVSPost2010PropOp30
 70
     1
102
RTVSPost2010Prop31
280
     0
102
RTVSPost2010PropOp31
 70
     1
102
RTVSPost2010Prop32
280
     0
102
RTVSPost2010PropOp32
 70
     1
102
RTVSPost2010Prop33
280
     0
102
RTVSPost2010PropOp33
 70
     1
102
RTVSPost2010Prop34
280
     0
102
RTVSPost2010PropOp34
 70
     1
102
RTVSPost2010Prop35
280
     0
102
RTVSPost2010PropOp35
 70
     1
102
RTVSPost2010Prop36
280
     0
102
RTVSPost2010PropOp36
 70
     1
102
RTVSPost2010Prop37
 90
       50
102
RTVSPost2010PropOp37
 70
     1
102
RTVSPost2010Prop38
140
0.0
102
RTVSPost2010PropOp38
 70
     1
102
RTVSPost2010Prop39
140
1.0
102
RTVSPost2010PropOp39
 70
     1
102
RTVSPost2010Prop40
 90
        0
102
RTVSPost2010PropOp40
 70
     1
102
RTVSPost2010Prop41ColorIndex
 90
       18
102
RTVSPost2010Prop41ColorRGB
 90
        0
102
RTVSPost2010PropOp41
 70
     1
102
RTVSPost2010Prop42
 90
       50
102
RTVSPost2010PropOp42
 70
     1
102
RTVSPost2010Prop43
 90
        3
102
RTVSPost2010PropOp43
 70
     1
102
RTVSPost2010Prop44ColorIndex
 90
        5
102
RTVSPost2010Prop44ColorRGB
 90
      255
102
RTVSPost2010PropOp44
 70
     1
102
RTVSPost2010Prop45
280
     0
102
RTVSPost2010PropOp45
 70
     1
102
RTVSPost2010Prop46
 90
       50
102
RTVSPost2010PropOp46
 70
     1
102
RTVSPost2010Prop47
 90
       50
102
RTVSPost2010PropOp47
 70
     1
102
RTVSPost2010Prop48
 90
       50
102
RTVSPost2010PropOp48
 70
     1
102
RTVSPost2010Prop49
280
     0
102
RTVSPost2010PropOp49
 70
     1
102
RTVSPost2010Prop50
 90
       50
102
RTVSPost2010PropOp50
 70
     1
102
RTVSPost2010Prop51ColorIndex
 90
      256
102
RTVSPost2010Prop51ColorRGB
 90
-16777216
102
RTVSPost2010PropOp51
 70
     0
102
RTVSPost2010Prop52
140
1.0
102
RTVSPost2010PropOp52
 70
     0
102
RTVSPost2010Prop53
 90
        2
102
RTVSPost2010PropOp53
 70
     1
102
RTVSPost2010Prop54
  1
strokes_ogs.tif
102
RTVSPost2010PropOp54
 70
     1
102
RTVSPost2010Prop55
280
     0
102
RTVSPost2010PropOp55
 70
     1
102
RTVSPost2010Prop56
140
1.0
102
RTVSPost2010PropOp56
 70
     1
102
RTVSPost2010Prop57
140
1.0
102
RTVSPost2010PropOp57
 70
     1
102
RTVSPropertyOp0
 70
     1
102
RTVSPropertyOp1
 70
     1
102
RTVSPropertyOp2
 70
     1
102
RTVSPropertyOp3
 70
     1
102
RTVSPropertyOp4
 70
     1
102
RTVSPropertyOp5
 70
     1
102
RTVSPropertyOp6
 70
     1
102
RTVSPropertyOp7
 70
     1
102
RTVSPropertyOp8
 70
     1
102
RTVSPropertyOp9
 70
     1
102
RTVSPropertyOp10
 70
     1
102
RTVSPropertyOp11
 70
     1
102
RTVSPropertyOp12
 70
     1
102
RTVSPropertyOp13
 70
     1
102
RTVSPropertyOp14
 70
     1
102
RTVSPropertyOp15
 70
     1
102
RTVSPropertyOp16
 70
     1
102
RTVSPropertyOp17
 70
     1
102
RTVSPropertyOp18
 70
     1
102
RTVSPropertyOp19
 70
     1
102
RTVSPropertyOp20
 70
     1
102
RTVSPropertyOp21
 70
     1
102
RTVSPropertyOp22
 70
     1
102
RTVSPropertyOp23
 70
     1
102
RTVSPropertyOp24
 70
     1
102
RTVSPropertyOp25
 70
     1
102
RTVSPropertyOp26
 70
     1
102
RTVSPropertyOp27
 70
     1
102
RTVSPropertyOp28
 70
     1
102
RTVSPropertyOp29
 70
     1
102
RTVSPropertyOp30
 70
     1
102
RTVSPropertyOp31
 70
     1
102
RTVSPropertyOp32
 70
     1
102
RTVSPropertyOp33
 70
     1
102
RTVSPropertyOp34
 70
     1
102
RTVSPropertyOp35
 70
     1
102
RTVSPropertyOp36
 70
     1
102
RTVSPropertyOp37
 70
     1
102
RTVSPropertyOp38
 70
     1
102
RTVSPropertyOp39
 70
     1
102
RTVSPropertyOp40
 70
     1
102
RTVSPropertyOp41
 70
     1
102
RTVSPropertyOp42
 70
     1
102
RTVSPropertyOp43
 70
     1
102
RTVSPropertyOp44
 70
     1
102
RTVSPropertyOp45
 70
     1
102
RTVSPropertyOp46
 70
     1
102
RTVSPropertyOp47
 70
     1
102
RTVSPropertyOp48
 70
     1
102
RTVSPropertyOp49
 70
     1
102
RTVSPropertyOp50
 70
     1
102
RTVSPropertyOp51
 70
     0
102
RTVSPropertyOp52
 70
     0
102
RTVSPropertyOp53
 70
     1
102
RTVSPropertyOp54
 70
     1
102
RTVSPropertyOp55
 70
     1
102
RTVSPropertyOp56
 70
     1
102
RTVSPropertyOp57
 70
     1
102
RTVSPropertyOp58
 70
     1
102
RTVSPropertyOp59
 70
     1
102
RTVSPropertyOp60
 70
     1
102
RTVSPropertyOp61
 70
     1
102
RTVSPropertyOp62
 70
     1
  0
XRECORD
  5
B0
102
{ACAD_REACTORS
330
AF
102
}
330
AF
100
AcDbXrecord
280
     1
102
RTVSPost2010Prop28
280
     0
102
RTVSPost2010PropOp28
 70
     1
102
RTVSPost2010Prop29
280
     1
102
RTVSPost2010PropOp29
 70
     1
102
RTVSPost2010Prop30
280
     1
102
RTVSPost2010PropOp30
 70
     1
102
RTVSPost2010Prop31
280
     0
102
RTVSPost2010PropOp31
 70
     1
102
RTVSPost2010Prop32
280
     0
102
RTVSPost2010PropOp32
 70
     1
102
RTVSPost2010Prop33
280
     0
102
RTVSPost2010PropOp33
 70
     1
102
RTVSPost2010Prop34
280
     0
102
RTVSPost2010PropOp34
 70
     1
102
RTVSPost2010Prop35
280
     0
102
RTVSPost2010PropOp35
 70
     1
102
RTVSPost2010Prop36
280
     0
102
RTVSPost2010PropOp36
 70
     1
102
RTVSPost2010Prop37
 90
       50
102
RTVSPost2010PropOp37
 70
     1
102
RTVSPost2010Prop38
140
0.0
102
RTVSPost2010PropOp38
 70
     1
102
RTVSPost2010Prop39
140
1.0
102
RTVSPost2010PropOp39
 70
     1
102
RTVSPost2010Prop40
 90
        0
102
RTVSPost2010PropOp40
 70
     1
102
RTVSPost2010Prop41ColorIndex
 90
       18
102
RTVSPost2010Prop41ColorRGB
 90
        0
102
RTVSPost2010PropOp41
 70
     1
102
RTVSPost2010Prop42
 90
       50
102
RTVSPost2010PropOp42
 70
     1
102
RTVSPost2010Prop43
 90
        3
102
RTVSPost2010PropOp43
 70
     1
102
RTVSPost2010Prop44ColorIndex
 90
        5
102
RTVSPost2010Prop44ColorRGB
 90
      255
102
RTVSPost2010PropOp44
 70
     1
102
RTVSPost2010Prop45
280
     0
102
RTVSPost2010PropOp45
 70
     1
102
RTVSPost2010Prop46
 90
       50
102
RTVSPost2010PropOp46
 70
     1
102
RTVSPost2010Prop47
 90
       50
102
RTVSPost2010PropOp47
 70
     1
102
RTVSPost2010Prop48
 90
       50
102
RTVSPost2010PropOp48
 70
     1
102
RTVSPost2010Prop49
280
     0
102
RTVSPost2010PropOp49
 70
     1
102
RTVSPost2010Prop50
 90
       50
102
RTVSPost2010PropOp50
 70
     1
102
RTVSPost2010Prop51ColorIndex
 90
      256
102
RTVSPost2010Prop51ColorRGB
 90
-16777216
102
RTVSPost2010PropOp51
 70
     0
102
RTVSPost2010Prop52
140
1.0
102
RTVSPost2010PropOp52
 70
     0
102
RTVSPost2010Prop53
 90
        2
102
RTVSPost2010PropOp53
 70
     1
102
RTVSPost2010Prop54
  1
strokes_ogs.tif
102
RTVSPost2010PropOp54
 70
     1
102
RTVSPost2010Prop55
280
     0
102
RTVSPost2010PropOp55
 70
     1
102
RTVSPost2010Prop56
140
1.0
102
RTVSPost2010PropOp56
 70
     1
102
RTVSPost2010Prop57
140
1.0
102
RTVSPost2010PropOp57
 70
     1
102
RTVSPropertyOp0
 70
     1
102
RTVSPropertyOp1
 70
     1
102
RTVSPropertyOp2
 70
     1
102
RTVSPropertyOp3
 70
     1
102
RTVSPropertyOp4
 70
     1
102
RTVSPropertyOp5
 70
     1
102
RTVSPropertyOp6
 70
     1
102
RTVSPropertyOp7
 70
     1
102
RTVSPropertyOp8
 70
     1
102
RTVSPropertyOp9
 70
     1
102
RTVSPropertyOp10
 70
     1
102
RTVSPropertyOp11
 70
     1
102
RTVSPropertyOp12
 70
     1
102
RTVSPropertyOp13
 70
     1
102
RTVSPropertyOp14
 70
     1
102
RTVSPropertyOp15
 70
     1
102
RTVSPropertyOp16
 70
     1
102
RTVSPropertyOp17
 70
     1
102
RTVSPropertyOp18
 70
     1
102
RTVSPropertyOp19
 70
     1
102
RTVSPropertyOp20
 70
     1
102
RTVSPropertyOp21
 70
     1
102
RTVSPropertyOp22
 70
     1
102
RTVSPropertyOp23
 70
     1
102
RTVSPropertyOp24
 70
     1
102
RTVSPropertyOp25
 70
     1
102
RTVSPropertyOp26
 70
     1
102
RTVSPropertyOp27
 70
     1
102
RTVSPropertyOp28
 70
     1
102
RTVSPropertyOp29
 70
     1
102
RTVSPropertyOp30
 70
     1
102
RTVSPropertyOp31
 70
     1
102
RTVSPropertyOp32
 70
     1
102
RTVSPropertyOp33
 70
     1
102
RTVSPropertyOp34
 70
     1
102
RTVSPropertyOp35
 70
     1
102
RTVSPropertyOp36
 70
     1
102
RTVSPropertyOp37
 70
     1
102
RTVSPropertyOp38
 70
     1
102
RTVSPropertyOp39
 70
     1
102
RTVSPropertyOp40
 70
     1
102
RTVSPropertyOp41
 70
     1
102
RTVSPropertyOp42
 70
     1
102
RTVSPropertyOp43
 70
     1
102
RTVSPropertyOp44
 70
     1
102
RTVSPropertyOp45
 70
     1
102
RTVSPropertyOp46
 70
     1
102
RTVSPropertyOp47
 70
     1
102
RTVSPropertyOp48
 70
     1
102
RTVSPropertyOp49
 70
     1
102
RTVSPropertyOp50
 70
     1
102
RTVSPropertyOp51
 70
     0
102
RTVSPropertyOp52
 70
     0
102
RTVSPropertyOp53
 70
     1
102
RTVSPropertyOp54
 70
     1
102
RTVSPropertyOp55
 70
     1
102
RTVSPropertyOp56
 70
     1
102
RTVSPropertyOp57
 70
     1
102
RTVSPropertyOp58
 70
     1
102
RTVSPropertyOp59
 70
     1
102
RTVSPropertyOp60
 70
     1
102
RTVSPropertyOp61
 70
     1
102
RTVSPropertyOp62
 70
     1
  0
XRECORD
  5
C8
102
{ACAD_REACTORS
330
C7
102
}
330
C7
100
AcDbXrecord
280
     1
102
RTVSPost2010Prop28
280
     0
102
RTVSPost2010PropOp28
 70
     1
102
RTVSPost2010Prop29
280
     1
102
RTVSPost2010PropOp29
 70
     1
102
RTVSPost2010Prop30
280
     1
102
RTVSPost2010PropOp30
 70
     1
102
RTVSPost2010Prop31
280
     0
102
RTVSPost2010PropOp31
 70
     1
102
RTVSPost2010Prop32
280
     0
102
RTVSPost2010PropOp32
 70
     1
102
RTVSPost2010Prop33
280
     0
102
RTVSPost2010PropOp33
 70
     1
102
RTVSPost2010Prop34
280
     0
102
RTVSPost2010PropOp34
 70
     1
102
RTVSPost2010Prop35
280
     0
102
RTVSPost2010PropOp35
 70
     1
102
RTVSPost2010Prop36
280
     0
102
RTVSPost2010PropOp36
 70
     1
102
RTVSPost2010Prop37
 90
       50
102
RTVSPost2010PropOp37
 70
     1
102
RTVSPost2010Prop38
140
0.0
102
RTVSPost2010PropOp38
 70
     1
102
RTVSPost2010Prop39
140
1.0
102
RTVSPost2010PropOp39
 70
     1
102
RTVSPost2010Prop40
 90
        0
102
RTVSPost2010PropOp40
 70
     1
102
RTVSPost2010Prop41ColorIndex
 90
       18
102
RTVSPost2010Prop41ColorRGB
 90
        0
102
RTVSPost2010PropOp41
 70
     1
102
RTVSPost2010Prop42
 90
       50
102
RTVSPost2010PropOp42
 70
     1
102
RTVSPost2010Prop43
 90
        3
102
RTVSPost2010PropOp43
 70
     1
102
RTVSPost2010Prop44ColorIndex
 90
        5
102
RTVSPost2010Prop44ColorRGB
 90
      255
102
RTVSPost2010PropOp44
 70
     1
102
RTVSPost2010Prop45
280
     0
102
RTVSPost2010PropOp45
 70
     1
102
RTVSPost2010Prop46
 90
       50
102
RTVSPost2010PropOp46
 70
     1
102
RTVSPost2010Prop47
 90
       50
102
RTVSPost2010PropOp47
 70
     1
102
RTVSPost2010Prop48
 90
       50
102
RTVSPost2010PropOp48
 70
     1
102
RTVSPost2010Prop49
280
     0
102
RTVSPost2010PropOp49
 70
     1
102
RTVSPost2010Prop50
 90
       50
102
RTVSPost2010PropOp50
 70
     1
102
RTVSPost2010Prop51ColorIndex
 90
      256
102
RTVSPost2010Prop51ColorRGB
 90
-16777216
102
RTVSPost2010PropOp51
 70
     0
102
RTVSPost2010Prop52
140
1.0
102
RTVSPost2010PropOp52
 70
     0
102
RTVSPost2010Prop53
 90
        2
102
RTVSPost2010PropOp53
 70
     1
102
RTVSPost2010Prop54
  1
strokes_ogs.tif
102
RTVSPost2010PropOp54
 70
     1
102
RTVSPost2010Prop55
280
     0
102
RTVSPost2010PropOp55
 70
     1
102
RTVSPost2010Prop56
140
1.0
102
RTVSPost2010PropOp56
 70
     1
102
RTVSPost2010Prop57
140
1.0
102
RTVSPost2010PropOp57
 70
     1
102
RTVSPropertyOp0
 70
     1
102
RTVSPropertyOp1
 70
     1
102
RTVSPropertyOp2
 70
     1
102
RTVSPropertyOp3
 70
     1
102
RTVSPropertyOp4
 70
     1
102
RTVSPropertyOp5
 70
     1
102
RTVSPropertyOp6
 70
     1
102
RTVSPropertyOp7
 70
     1
102
RTVSPropertyOp8
 70
     1
102
RTVSPropertyOp9
 70
     1
102
RTVSPropertyOp10
 70
     1
102
RTVSPropertyOp11
 70
     1
102
RTVSPropertyOp12
 70
     1
102
RTVSPropertyOp13
 70
     1
102
RTVSPropertyOp14
 70
     1
102
RTVSPropertyOp15
 70
     1
102
RTVSPropertyOp16
 70
     1
102
RTVSPropertyOp17
 70
     1
102
RTVSPropertyOp18
 70
     1
102
RTVSPropertyOp19
 70
     1
102
RTVSPropertyOp20
 70
     1
102
RTVSPropertyOp21
 70
     1
102
RTVSPropertyOp22
 70
     1
102
RTVSPropertyOp23
 70
     1
102
RTVSPropertyOp24
 70
     1
102
RTVSPropertyOp25
 70
     1
102
RTVSPropertyOp26
 70
     1
102
RTVSPropertyOp27
 70
     1
102
RTVSPropertyOp28
 70
     1
102
RTVSPropertyOp29
 70
     1
102
RTVSPropertyOp30
 70
     1
102
RTVSPropertyOp31
 70
     1
102
RTVSPropertyOp32
 70
     1
102
RTVSPropertyOp33
 70
     1
102
RTVSPropertyOp34
 70
     1
102
RTVSPropertyOp35
 70
     1
102
RTVSPropertyOp36
 70
     1
102
RTVSPropertyOp37
 70
     1
102
RTVSPropertyOp38
 70
     1
102
RTVSPropertyOp39
 70
     1
102
RTVSPropertyOp40
 70
     1
102
RTVSPropertyOp41
 70
     1
102
RTVSPropertyOp42
 70
     1
102
RTVSPropertyOp43
 70
     1
102
RTVSPropertyOp44
 70
     1
102
RTVSPropertyOp45
 70
     1
102
RTVSPropertyOp46
 70
     1
102
RTVSPropertyOp47
 70
     1
102
RTVSPropertyOp48
 70
     1
102
RTVSPropertyOp49
 70
     1
102
RTVSPropertyOp50
 70
     1
102
RTVSPropertyOp51
 70
     0
102
RTVSPropertyOp52
 70
     0
102
RTVSPropertyOp53
 70
     1
102
RTVSPropertyOp54
 70
     1
102
RTVSPropertyOp55
 70
     1
102
RTVSPropertyOp56
 70
     1
102
RTVSPropertyOp57
 70
     1
102
RTVSPropertyOp58
 70
     1
102
RTVSPropertyOp59
 70
     1
102
RTVSPropertyOp60
 70
     1
102
RTVSPropertyOp61
 70
     1
102
RTVSPropertyOp62
 70
     1
  0
ENDSEC
  0
EOF
